Melodia.Space
Search
Close this search box.
Главная🎸 АккордыАрмейские аккордыВоенные, армейские песни – Катюша (соло), аккорды

Военные, армейские песни – Катюша (соло), аккорды

Katyusha (solo)
1|---------------------|
2|-5-7-8-5-8-8-7-5-7---|
3|-------------------4-|

1|----------------------|
2|-7-8-10-7-10-10-8-7---|
3|--------------------9-|


1|-7-12-10-12-8-8-7----7---8----7---------------|
2|------------------10---8---10---8-10-10-8-7---|x2
3|--------------------------------------------9-|
_______________________________
Another variant:
1|-5-7-8-5-8-8-7-5-7-0-|

1|-7-8-10-7-10-10-8-7-5-|

1|-10-15-13-15-13-13-12-10-12-8-|

1|-13-10-12-8-10-10-8-7-5-|

Военные, армейские песни – Катюша (соло), аккорды - На Гитаре AmDm..