Melodia.Space
Главная 🎸 Аккорды Red Hot Chili Peppers Red Hot Chili Peppers – Why Don’t You Love Me (btab), аккорды

Red Hot Chili Peppers – Why Don’t You Love Me (btab), аккорды

Intro play 4 times each bar 
 G|----------------------|----------------------| 
 D|--7-let-ring----------|--5-let ring----------| 
 A|--0-0--0-0--0-0--0-0--|--0-0--0-0--0-0--0-0--| 
 E|----------------------|----------------------| 
 
Main riff 4 times I am not sure if it's slide 1/3 
but a slide anyway 
 G|------------------|----------| 
 D|--7--4-5-----4h5--|--7--5-4--| 
 A|---------1/3------|----------| 
 E|------------------|----------| 
 
After this back to main riff (play 2 times) 
 G|-------------------|---------------| 
 D|-------------------|---------------| 
 A|--0h2-0-2-5-2-0-2--|--0h2-2-0------| 
 E|-------------------|----------3-3--| 
 
This part after second verse 
 G|-------------|---------| 
 D|----------3--|---------| 
 A|--5-2-3-5----|--5-2-3--| 
 E|-------------|---------| 
 
Interlude 
 G|------0---------|-----0----| 
 D|--0h2--2--------|--0h2-2---| 
 A|----------------|----------| 
 E|---------0-0-0--|-------0--| 
 
Variation 
 G|------0---------|-----0-------| 
 D|--0h2--2--------|--0h2-2-0----| 
 A|----------------|-------------| 
 E|---------0-0-0--|----------0--| 
 
Variation in the end 
 G|------0-----------|-----0----| 
 D|--0h2--2----------|--0h2-2---| 
 A|--------------3---|----------| 
 E|---------0-3-5-0--|-------0--|

Red Hot Chili Peppers – Why Don’t You Love Me (btab), аккорды - На Гитаре AmDm..