Melodia.Space
Главная 🎸 Аккорды Red Hot Chili Peppers Red Hot Chili Peppers – What It Is (bass), аккорды

Red Hot Chili Peppers – What It Is (bass), аккорды

 G-|--------------------|-----|------------------|--9//11-| 
 D-|--------------------|-----|------------------|--9//11-| 
 A-|--------------------|-----|------------------|--------| 
 E-|-О---0--0-----0-0---|h1p0-|-0---0--0----0-0--|--------| 
    x   x  x     x x    x x    x   x  x    x x 
 
 G-|--------------------|-------------|--------------------|---------------| 
 D-|--------------------|-5---5-------|--------------------|-5---5---------| 
 A-|--------------------|-------------|--------------------|---------------| 
 E-|-0---0--0----0-0h5h7|---*---5---7-|-0---0--0----0-0h5h7|---x---5-5-7-7-| 
    x   x  x    x x      p x p x   x   x   x  x    x x      p x p x x x x 
Verse: 
 G-|-----------------------|-9--------------------| 
 D-|-о--9------------------|--------------------о-| 
 A-|-о--------------5--5h7-|-------------5-5h7--о-| 
 E-|-----0--0h5h7----------|--0--0h5h7------------| 
 
Сноrus: 
 G-|-----------------|---------------------| 
 D-|о----------------|-------------------о-| 
 A-|о----------------|-------------------о-| 
 E-|--7-3--0-0-3-5-7-|--7-3--0-0-7-7-5-3---| 

Red Hot Chili Peppers – What It Is (bass), аккорды - На Гитаре AmDm..