Melodia.Space
Главная 🎸 Аккорды Red Hot Chili Peppers Red Hot Chili Peppers – Under The Bridge (btab), аккорды

Red Hot Chili Peppers – Under The Bridge (btab), аккорды

 No Bass until between verse 1 and 2 
 G|-------------------------------------------------------------| 
 D|-------------------------------------------------------------| 
 A|-------------------------------------------------------------| 
 E|-0---0---0---0---0 let ring----------------------------------| 
 
Then chorus:
 G|-------------------------------------------------------------| 
 D|--11---------9--------------9--------------------------------| 
 A|--9----7--7------7---------------7----9---9---9---9----------| 
 E|--------------------9---7------------------------------------| 
 
 G|-------------------------------------------------------------| 
 D|--11---------9--------------9--------------------------------| 
 A|--9----7--7------7---------------7----9---9h11p9h11p9--------| 
 E|--------------------9---7------------------------------------| 
 
 G|-------------------------------------------------------------| 
 D|--11---------9---------------9-------------------------------| 
 A|--9----7--7------7---------------7----9---9---9---9----------| 
 E|--------------------9----7-----------------------------------| 
 
 G|-------------------------------------------------------------| 
 D|--11---------9---------------9-------------------------------| 
 A|--9----7--7------7---------------7----9---9------------------| 
 E|--------------------9----7-----------------------------------| 
 
Verses:
 G|-------------------------------------------------------------| 
 D|-------------------------------------------------------------| 
 A|---------2--------0---------------2-------4-----0-----0------| 
 E|--0------------4------------0--------------------------------| 
 
 G|-------------------------------------------------------------| 
 D|-------------------------------------------------------------| 
 A|---------2--------0---------------2-------4-----0-----0------| 
 E|--0------------4------------0--------------------------------| 
 
 G|---------------------------------------------------------7/9-| 
 D|-------------------------------------------------------------| 
 A|-------2--------0--------------2-------4-----0-----0---------| 
 E|-0-----------4-----------0-----------------------------------| 
 
Back to chorus:
 G|-------------------------------------------------------------| 
 D|--11---------9--------------9--------------------------------| 
 A|--9----7--7------7---------------7----9---11-9-7-9-----------| 
 E|--------------------9---7------------------------------------| 
 
 G|-------------------------------------------------------------| 
 D|--11---------9--------------9--------------------------------| 
 A|--9----7--7------7---------------7----9---9------------------| 
 E|--------------------9---7---------------------2---2----------| 
 
 G|-------------------------------------------------------------| 
 D|--11---------9--------------9--------------------------------| 
 A|--9----7--7------7---------------7----9---9---9---9----------| 
 E|--------------------9---7------------------------------------| 
 
 G|-------------------------------------------------------------| 
 D|--11---------9--------------9--------------------------------| 
 A|--9----7--7------7---------------7----9---9-----9------------| 
 E|--------------------9---7------------------------------------| 
 
Ending: 
 G|----9---------------------------7--------------------5-------| 
 D|-7-----7---10---7---5---7---5-------5----3-----5h7-------7p5-| 
 A|-------------------------------------------------------------| 
 E|-------------------------------------------------------------| 
 
 G|----9-------9-----------7-----------------------5------------| 
 D|---------7-----7----5--------5-----3-----5h7--------7p5h7----| 
 A|-0----0------------------------------------------------------| 
 E|-------------------------------------------------------------| 
 
 G|----9---------------------------7--------------------5-------| 
 D|-7-----7---10---7---5---7---5-------5----3-----5h7-------7p5-| 
 A|-------------------------------------------------------------| 
 E|-------------------------------------------------------------| 
 
Bridge before choir:
 G|-------------------------------------------------------------| 
 D|-------------------------------------------------------------| 
 A|-------------------------------------------------------------| 
 E|--1-1-1-1-1-1-1-1-0-0-0-0-3-3-3-3----------------------------| 
 
 G|----9---------------------------7--------------------5-------| 
 D|-7-----7---10---7---5---7---5-------5----3-----5h7-------7p5-| 
 A|-------------------------------------------------------------| 
 E|-------------------------------------------------------------| 
 
 G|----9-------9-----------7-----------------------5------------| 
 D|---------7-----7----5--------5-----3-----5h7-------7p5h7-----| 
 A|-0----0------------------------------------------------------| 
 E|-------------------------------------------------------------| 
 
 G|----9---------------------------7--------------------5-------| 
 D|-7-----7---10---7---5---7---5-------5----3-----5h7-------7p5-| 
 A|-------------------------------------------------------------| 
 E|-------------------------------------------------------------| 
 
 G|----9-------9-----------7-----------------------5------------| 
 D|---------7-----7----5--------5-----3-----5h7-------7p5h7-----| 
 A|-0----0------------------------------------------------------| 
 E|-------------------------------------------------------------| 
 
 G|----9----------------------------7-------------------5-------| 
 D|-7-----7---10---7---5---7----5-------5----3----5h7-------7p5-| 
 A|-------------------------------------------------------------| 
 E|-------------------------------------------------------------| 
 
 G|----9-------9-----------7-----------------------5------------| 
 D|---------7-----7----5--------5-----3-----5h7-------7p5h7-----| 
 A|-0----0------------------------------------------------------| 
 E|-------------------------------------------------------------| 
 
 G|----9---------------------------7--------------------5-------| 
 D|-7-----7---10---7---5---7---5-------5----3-----5h7-------7p5-| 
 A|-------------------------------------------------------------| 
 E|-------------------------------------------------------------| 
 
 G|----9-------9-----------7-----------------------5------------| 
 D|---------7-----7----5--------5-----3-----5h7-------7p5h7-----| 
 A|-0----0------------------------------------------------------| 
 E|-------------------------------------------------------------| 
 
End of vocals and drums:
 G|----9---------------------------7--------------------5-------| 
 D|-7-----7---10---7---5---7---5-------5----3-----5h7-------7p5-| 
 A|-------------------------------------------------------------| 
 E|-------------------------------------------------------------| 
 
 G|----9-------9-----------7-----------------------5h7p5--------| 
 D|---------7-----7----5--------5-----3-----5h7------------7p5--| 
 A|-0----0------------------------------------------------------| 
 E|-------------------------------------------------------------| 
 
 G|----9-----------------------------7------------------5-------| 
 D|-7-----7----10----7---5---7---5-------5----3---5h7-------7p5-| 
 A|-------------------------------------------------------------| 
 E|-------------------------------------------------------------| 
 
 G|----9-------9-----------7------------------------------------| 
 D|---------7-----7----5--------5-----3-------------------------| 
 A|-0----0------------------------------------0 let ring--------| 
 E|-------------------------------------------------------------|

Red Hot Chili Peppers – Under The Bridge (btab), аккорды - На Гитаре AmDm..