Melodia.Space
Главная 🎸 Аккорды Red Hot Chili Peppers Red Hot Chili Peppers – Time (bass), аккорды

Red Hot Chili Peppers – Time (bass), аккорды

Intro
G|---------------|---------------|
D|---------------|---------------|
A|------------5h7|------------5h7|
E|--5-5x-5-5x----|--5-5x-5-5x----|

G|--------------------|----------------|
D|--------------------|----------------|
A|------------5h7p5h7-|------------5h7-|
E|--5-5x-5-5x---------|--5-5x-5-5x-----|

Verse
G|----------------------------------|
D|----------------------------------|
A|------------23333-----------23333-|
E|--5-5-5-5-5-------1-1-1-1-1-------|

Interlude ( One Time .... )
G|-------------------------------------------------|
D|-------------------------------------------------|
A|--5/17-17-17-17-15-15-17-15-15-17----------------|
E|----------------------------------12-12-12-12-12-|

G|--------------------------------------------------|
D|--------------------------------17-17-17-15-15-17-|
A|--17-17-17-17-15-15-17-15-15-17-------------------|
E|--------------------------------------------------|

G|-------------------------------------------------|
D|-------------------------------------------------|
A|--5/17-17-17-17-15-15-17-15-15-17----------------|
E|----------------------------------12-12-12-12-12-|

G|----------------------------------17-17-17-15-15-17-|
D|----------------------------------------------------|
A|--5/17-17-17-17-15-14-17-15-15-17-------------------|
E|----------------------------------------------------|

G|----------------------------------|
D|----------------------------------|
A|------------7-5-7-7-7-5-5---------|
E|--7-5-7-7-5---------------7-5-7-5-|

G|---------------------------------|
D|---------------------------------|
A|-----------9-9-7-5-5-9-7---------|
E|-7-5-7-7-5-----------------9-7-5-|

Red Hot Chili Peppers – Time (bass), аккорды - На Гитаре AmDm..