Melodia.Space
Главная 🎸 Аккорды Red Hot Chili Peppers Red Hot Chili Peppers – Throw Away Your Television (btab), аккорды

Red Hot Chili Peppers – Throw Away Your Television (btab), аккорды

Intro: 
 g---------------------------9--------99-x9------------- || 
 d-77-7-0-77x7-0-----------------------------x9--10-----*|| Repeat 
 a---------------7--0----77-------7---------------------*|| This (?) 
 e------------------------------0----------------------- || # of times. 
 
Chorus: 
 g----9----9---9----11----11----11--- || 
 d--7---7----7---9----9-----9-----9--*|| After this you go back to the 
 a-----------------------------------*|| intro. 
 e----------------------------------- || 
 
Outro: 
 g---------------------------------------------------------------- || 
 d-7-77-7-77--7-77-9-99-99-9---1212-1212---12--14-14-14-12--10/12-*|| 
 a----------------------------------------------------------------*|| 
 e---------------------------------------------------------------- ||

Red Hot Chili Peppers – Throw Away Your Television (btab), аккорды - На Гитаре AmDm..