Melodia.Space
Главная 🎸 Аккорды Red Hot Chili Peppers Red Hot Chili Peppers – The Coffee Shop (bass), аккорды

Red Hot Chili Peppers – The Coffee Shop (bass), аккорды

Bass figure 1:
G|----------------------------|-----------------2---------|
D|------2--2-------2--2---2---|------2--2-------------5---|
A|----------------------------|---------------------------|
E|-0--x-------0--x------0---0-|-0--x-------0--x---x-3---3-|

G|-----------------------|---------------------------|
D|-----------------------|-----2---------------------|
A|-----------------------|-----------0h2p0---0h2p0---|
E|-5---5--x-x-3--3--x--0-|--0--------------3-------3-|

G|-----------------------|-------------------------|
D|-----------------------|----2--------------------|
A|------------3--3-------|---------0h2p0---0h2p0---|
E|-5---5--x-x-------x--0-|--0------------3-------3-|

G|-----------------------|-----------------------|---------------------|
D|-----------------------|----------4------------|---------------------|
A|-----------------------|-----------------------|-----------3--3------|
E|-5---5--x-x-3--3--0--2-|--2--2--2---3--3--0--2-|--2--2-x-x--------5--|

G|-----------------------|
D|-----------------------|
A|-----------------------|
E|--5--5--5--5--5--5--5--|

Interlude: (With Auto-wah)
G|-------------------------------|-------------------------------------|
D|----14-14--------x-------------|-------------12p11h12p11h12p11h12p11-|
A|----------12h14-x--------------|--------10---------------------------|
E|-0-x---------------x-10h12-x-x-|-10h12-x---x-------------------------|

G|------------------------12h14------|-14---12--12p11--------|
D|-----14-14--------x-----------12-x-|----------------12--12-|
A|-----------12h14-x-----------------|-----------------------|
E|-0-x----------------x-x------------|-----------------------|

G|--------------------------------------------------|
D|-12h14P12h14-11h12p11h12--------------------------|
A|-------------------------10h12p10h12--------------|
E|--------------------------------------10h12p10h12-|

G|-----------------------------|-----------------------------------|
D|-----x-x---------x-----------|----------------12--x-------12-----|
A|---------------x---x-x-------|-------x-10h12-x---x--x-x-10-------|
E|-0-x-----10h12---------10h12-|-10h12-------------------------x-x-|

G|------------------------------|
D|-------x-x---x----------x-----|
A|-----------x---x-12h14----x-x-|
E|-10h12------------------------|

G|---9--7--6----x-------|------------------|---9--7--6---x--------|
D|----------------------|----5--7----9/17-|----------------------|
A|-7----------x---x-x-5-|-7--------x-------|-7---------x---x-x-4--|
E|----------------------|------------------|----------------------|

G|--------7----6---------|---9--7--6----X-------|----------12/14----14-|
D|-----6-----------7P5P0-|----------------------|----------11/12----12-|
A|--5--------X---X-------|-7----------X---X-X---|-X-X------------------|
E|-----------------------|--------------------3-|-----0-----------0----|

G|---9--7--6---X-------|-------------------|
D|---------------------|-------------------|
A|-7---------X---X-X---|-/11---10---9---8--|
E|-------------------3-|-------------------|

G|-------------------------|-------------------------|
D|-------------------------|-------------------------|
A|-------------------------|-------------------------|
E|-0--0--0--0--0--0-0-0--0-|-0--0--0--0--0--0-0-0--0-|

       Reapet two times         Bass solo:
G|-----------------------------|-------------------------|
D|----------5------------------|----------5--------5-7-5-|
A|-----5h7-7---7--7-5h7-5h7--5-|-----5h7-7---7--7-7------|
E|-0--0------------------------|-0--0--------------------|

G|---------------------7--7h9-7--|-7h9--7-7-9-9-9-/12--12-12--12-12----|
D|-7/9-7-5-7-5-----7/9--9------9-|-------9--------------------------12-|
A|-------------7-5---------------|-------------------------------------|
E|-------------------------------|-------------------------------------|

G|------12---14--14-14--14--14-----12--12-|
D|-12h14--14-------------------------14---|
A|----------------------------------------|
E|----------------------------------------|

G|-14--14--14--14--14-12---------------|--------------------------12----|
D|----------------------14-12-14-14-14-|-12h14-14-14-12--------------14-|
A|-------------------------------------|---------------14-15-15-15------|
E|-------------------------------------|--------------------------------|

G|-------------12----------------------------|
D|------14-------16-14--------------------12-|
A|-14h15--14h15-------12-15-15-12-14-14-14---|
E|-------------------------------------------|

G|------------------------12-----------|
D|------------12--12-13-14--14-12-14---|
A|-14-12-13-14--14---------------------|
E|-------------------------------------|

G|------------------------12-----------|
D|------------12--12-13-14--14-12-14---|
A|-14-12-13-14--14---------------------|
E|-------------------------------------|

G|---------------------12h14-14-14--14-14-|
D|---------12--12-13-14-------------------|
A|-12-13-14--14---------------------------|
E|----------------------------------------|

G|-/19--19--18-18-16--16--------------------|
D|-----------------------17--17-16-16-14-14-|
A|------------------------------------------|
E|------------------------------------------|

G|----------------------------|-----------------2---------|
D|------2--2-------2--2---2---|------2--2-------------5---|
A|----------------------------|---------------------------|
E|-0--0-------0--0------0---0-|-0--0-------0--0---0-3---3-|

G|----------------------------|-----------------2---------|
D|------2--2-------2--2---2---|------2--2-------------5---|
A|----------------------------|---------------------------|
E|-0--0-------0--0------0---0-|-0--0-------0--0---0-3---3-|

G|-----|
D|-----|
A|-----|
E|-0---|

Red Hot Chili Peppers – The Coffee Shop (bass), аккорды - На Гитаре AmDm..