Melodia.Space
Главная 🎸 Аккорды Red Hot Chili Peppers Red Hot Chili Peppers – Save The Population (bass), аккорды

Red Hot Chili Peppers – Save The Population (bass), аккорды

Intro/Verse: 
G|------------------------|
D|------------------------|
A|----1-1-1-1/5-5-5-5-5-5-|(Verse with some improvisation
E|-3-3--------------------| at end of riff)

Pre chorus:
G|-----------------------------------|
D|-----------------------------------|
A|----------------11-11-11-11-11-11--|
E|-33-33-33-33-33--------------------|x2

Then play:
G|---------------------------------------------------|
D|---------------------------------------------------|
A|66-66-66-66-66-33-33-33-33-33-55-55-55-55-55-55-55-|
E|---------------------------------------------------|x1

Chorus:
G|------------------------------------------|
D|1-1-1-1-1-1/3-3-3-3-3/5-5-5-5-5-5-5-5-5-5-|
A|------------------------------------------|
E|------------------------------------------|

Red Hot Chili Peppers – Save The Population (bass), аккорды - На Гитаре AmDm..