Melodia.Space
Главная 🎸 Аккорды Red Hot Chili Peppers Red Hot Chili Peppers – Pretty Little Ditty (bass), аккорды

Red Hot Chili Peppers – Pretty Little Ditty (bass), аккорды

Bass figure 1:
G|-------------------|----------------------------|
D|---------x--10~~~~-|---x---------10~~~~12~~10~~-|
A|-5h7---------------|-----5h7--------------------|
E|-------x-----------|-x-------x------------------|
 
Bass figure 2:
G|--------5---5---|--------5---5---|
D|-----5----5---5-|-----5----5---5-|
A|-3--------------|-3--------------|
E|----------------|----------------|

Bass figure 3:
G|---17------16------14------14------|---13-----------13-------|
D|------14------14------14------14---|------14-----------14----|
A|-0-------0-------0-------0-------0-|-14------14--14-------14-|
E|-----------------------------------|-------------------------|

G|----16-----------16----------|
D|-------17-----------17-------|
A|-17-------17--17-------17-17-|
E|-----------------------------|

G|---17------16------14-----14------|----17-----------17-------|
D|------14------14------14-----14---|-------17-----------17----|
A|-0-------0-------0-------0------0-|-15-------15--15-------15-|
E|----------------------------------|--------------------------|

G|----19-----------19----------|
D|-------17-----------17-------|
A|-17-------17--17-------17-17-|
E|-----------------------------|

Bass figure 4:
G|-------9----12----10---7---|-------9----12---10--9---|
D|----7----7-----10----7---7-|----7----7-----7---7---7-|
A|-0-------------------------|-0-----------------------|
E|---------------------------|-------------------------|

Ending:
G|------|
D|------|
A|--0---|
E|------|

Red Hot Chili Peppers – Pretty Little Ditty (bass), аккорды - На Гитаре AmDm..