Melodia.Space
Главная 🎸 Аккорды Red Hot Chili Peppers Red Hot Chili Peppers – Porcelain, аккорды

Red Hot Chili Peppers – Porcelain, аккорды

 (0:10) 
 E|------------------------------- 
 B|--------------------------------------- 
 G|--6/--2--4/6--(2)--6/--(2)----2-------- 
 D|----------------------------2---------- 
 A|--------------------------------------- 
 E|--------------------------------------- 
 
(0:31) 
 E--2--2--2--4--5--0--------------------- 
 B--------------------2------------------ 
 G-----------------------4/--6----------- 
 D--------------------------------------- 
 A--------------------------------------- 
 E--------------------------------------- 
 
(0:41) 
 E--2--2--2--4--5--7--5--4--2--4--5--0--- 
 B--------------------------------------2 
 G--------------------------------------- 
 D--------------------------------------- 
 A--------------------------------------- 
 E--------------------------------------- 
 
(0:51) 
 E|--------------------------------------- 
 B|--------------------------------------- 
 G|--4/--6--2--4------2------------------ 
 D|--------------------------------------- 
 A|--------------------------------------- 
 E|--------------------------------------- 
 
(1:01) 
 E|--------------------------------------- 
 B|--------------------------------------- 
 G|--4/--6--2---------------------------- 
 D|--------------------------------------- 
 A|--------------------------------------- 
 E|--------------------------------------- 
 
(1:06) 
 E--------------------------------------- 
 B--5--5--5--5--5--5--5--5--5--5--5--5---(triplets) 
 G--------------------------------------- 
 D--------------------------------------- 
 A--------------------------------------- 
 E--------------------------------------- 
 
(1:11) 
 E--------------------------------------- 
 B--------------------------------------- 
 G--6--4/--6----2------------------------ 
 D-------------------(4)----------------- 
 A--------------------------------------- 
 E--------------------------------------- 
 
(1:31) 
E--2--2--2--4--5--0--------------------- 
B--------------------2------------------ 
G-----------------------4/--6----------- 
D--------------------------------------- 
A--------------------------------------- 
E--------------------------------------- 
 
(1:41) 
 E--2--2--2--4--5--7--5--4--2--4--5--0--- 
 B--------------------------------------2 
 G--------------------------------------- 
 D--------------------------------------- 
 A--------------------------------------- 
 E--------------------------------------- 
 
(1:51) 
 E|--------------------------------------- 
 B|-------------5--2-----7--3-----5--2---- 
 G|--4/--6--2--------2--------2--------2- 
 D|--------------------------------------- 
 A|--------------------------------------- 
 E|--------------------------------------- 
 
(2:01) 
 E|--------------------------------------- 
 B|--------------------------------------- 
 G|--4/--6--2---------------------------- 
 D|--------------------------------------- 
 A|--------------------------------------- 
 E|--------------------------------------- 
 
(2:06) 
 E--------------------------------------- 
 B-5--5--5--5--5--5--5--5--5--5--5--5---- 
 G--------------------------------------- 
 D--------------------------------------- 
 A--------------------------------------- 
 E--------------------------------------- 
 
(2:12) 
 E|---------------------------5----------- 
 B|------------------7--3--------5-------- 
 G|--4/--6--2--(4)--------2--------2----- 
 D|--------------------------------------- 
 A|--------------------------------------- 
 E|--------------------------------------- 
 
(2:22) 
 E|--------------------------------------- 
 B|--------------------------------------- 
 G|--4/--6--2---------------------------- 
 D|--------------------------------------- 
 A|--------------------------------------- 
 E|--------------------------------------- 
 
(2:27) 
 E--------------------------------------- 
 B--5--5--5--5--5--5--5--5--5--5--5--5--- 
 G--------------------------------------- 
 D--------------------------------------- 
 A--------------------------------------- 
 E--------------------------------------- 
 
(2:32) 
 E--------------------------------------- 
 B--------------------------------------- 
 G--6(b)--------------------------------- 
 D--------------------------------------- 
 A--------------------------------------- 
 E---------------------------------------

Red Hot Chili Peppers – Porcelain, аккорды - На Гитаре AmDm..