Melodia.Space
Главная 🎸 Аккорды Red Hot Chili Peppers Red Hot Chili Peppers – Look Around, аккорды

Red Hot Chili Peppers – Look Around, аккорды

e|---10-10------131313-10-10------1515-13-15---|
B|---10-h11-...-111111-10-h11-...-1515-13-15---|
G|---10-10-------------10-10-------------------| 2x (with slide down at the end)
D|---------------------------------------------|
A|---------------------------------------------|
E|---------------------------------------------|

e|---1313-15------1313-15------1313-15---|
B|---1313-15------1313-15------1313-15---|
G|---------------------------------------|
D|---------------------------------------|
A|---------------------------------------|
E|---------------------------------------|

e|-----------------------------------------------------------------------------|
B|--------------------------------13-15~--15~-------------------11-------------|
G|------------------------10-12~------------------14-15-12~--10b12----12-------|
D|----------------10-12~-------------------------------------------------12~---|
A|---10~--12-13~---------------------------------------------------------------|
E|-----------------------------------------------------------------------------|

e|---10-10------131313-10-10------1515-13-15---|
B|---10-h11-...-111111-10-h11-...-1515-13-15---|
G|---10-10-------------10-10-------------------| 2x (with slide down at the end)
D|---------------------------------------------|
A|---------------------------------------------|
E|---------------------------------------------|

e|---13b15-10--8-8-10~--8h10p8-6--6-8b10-8b10-8b10-8b10r8p6~---|
B|-------------------------------------------------------------|
G|-------------------------------------------------------------|
D|-------------------------------------------------------------|
A|-------------------------------------------------------------|
E|-------------------------------------------------------------|

e|---1313-15---|
B|---1313-15---|
G|-------------|
D|-------------|
A|-------------|
E|-------------|

e|-----------------------------------------------------------------------------|
B|--------------------------------13-15~--15~-------------------11-------------|
G|------------------------10-12~------------------14-15-12~--10b12----12-------|
D|----------------10-12~-------------------------------------------------12~---|
A|---10~--12-13~---------------------------------------------------------------|
E|-----------------------------------------------------------------------------|

e|---10-10------131313-10-10------1515-13-15---|
B|---10-h11-...-111111-10-h11-...-1515-13-15---|
G|---10-10-------------10-10-------------------| 2x (with slide down at the end)
D|---------------------------------------------|
A|---------------------------------------------|
E|---------------------------------------------|

e|----------------------------------------------------------------------------------|
B|---12------12------12-12-12-12-12-12-12-12---12-12-12-12-12-12-12-12-12--12-------|
G|---12------12------12-12-12-12-12-12-12-12---12-12-12-12-12-12-12-12-12--12-...---|
D|---12------12------12-12-12-12-12-12-12-12---12-12-12-12-12-12-12-12-12--12-------|
A|----------------------------------------------------------------------------------|
E|----------------------------------------------------------------------------------|

e|---------------------------------------------------------------------------------------|
B|---------------------------------------------------------------------------------------|
G|--------------3-5b7r5-3------------3h5p3-3h5p3-3h5p3------------3-3----3-3----3-5b7r5-3|
D|---3h5~---3h5-----------3h5~---3h5------5-----5-----5-3h5~---3h5----3h5----3h5---------|
A|---------------------------------------------------------------------------------------|
E|---------------------------------------------------------------------------------------|
 |                                                           |
e|---------------------------------------------------------------------------------------|
B|---------------------------------------------------------------------------------------|
G|-------3h5p3------3h5p3--------15h17p15---------15h17p15-------------------------------|
D|---3h5------5-3h5------5-15h17---------17-15h17---------17--17------------------------|
A|---------------------------------------------------------------------------------------|
E|---------------------------------------------------------------------------------------|

/! This solo isn't the solo of the album, it's mine. /!

e|---10-10------131313-10-10------1515-13-15---|
B|---10-h11-...-111111-10-h11-...-1515-13-15---|
G|---10-10-------------10-10-------------------| 3x
D|---------------------------------------------|
A|---------------------------------------------|
E|---------------------------------------------|

e|---10-10------131313-10-10--------------|
B|---10-h11-...-111111-10-h11-...---------|
G|---10-10-------------10-10--------------|
D|----------------------------------------|
A|----------------------------------10~---|
E|----------------------------------------|

Red Hot Chili Peppers – Look Around, аккорды - На Гитаре AmDm..