Melodia.Space
Главная 🎸 Аккорды Red Hot Chili Peppers Red Hot Chili Peppers – Give It Away (btab), аккорды

Red Hot Chili Peppers – Give It Away (btab), аккорды

Intro:
G|------------|
D|------------|
A|--0/14-1/12-|
E|------------|

Main bass figure:
G|-------------------|-----------------|
D|-------17----------|-------17--------|
A|-0-x/19----x03-x03-|-0-x/19------x03-|
E|-------------------|-----------------|

Guitar Solo:
G|--------------------|--------------------|
D|--------------------|--------------------|
A|----------10--------|----------10--------|
E|-0-x-10h12----03-x3-|-0-x-10h12----x3-x3-|
   
Ending of Guitarsolo 1:
G|--------------------------------|
D|---------------------------------|
A|---------------------------------|
E|-0-10p0-9p0-7p0-5p0-4p0-3p0-2p0-|

Ending of Guitarsolo 2:
G|------------------------------|
D|------------------------------|
A|------------------------------|
E|-0-10p0-9p0-7p0-6p0-5p0-6p0-4-|

Припев:
G|------------------------|--------------------|
D|-------17----19--17--17-|-------17---7-5-4---|
A|-0-x/19----19--19--19---|-0-x/19---x-0-6-6-5-|
E|------------------------|--------------------|

Red Hot Chili Peppers – Give It Away (btab), аккорды - На Гитаре AmDm..