Melodia.Space
Главная 🎸 Аккорды Red Hot Chili Peppers Red Hot Chili Peppers – Give It Away, аккорды

Red Hot Chili Peppers – Give It Away, аккорды

   Intro:
E|--------8---------10-----10-----10-----10-----10-|
B|--------7/8---9p8----9p8----9p8----9p8----9p8----|
C|-------------------------------------------------|
D|7-7-7-7------------------------------------------|
A|0-0-0-0------------------------------------------|
E|-------------------------------------------------|

E|--------8---|
B|--------7/8-|
C|------------|
D|7-7-7-7-----|
A|0-0-0-0-----|
E|------------|

   Riff
E|----------------------------------------------|
B|---------------------5------------------------|
C|--7-6-5----------7-8-----7-6-5----------7-5---|
D|7-------5-5-7--7-------7-------5-5-7--7-----5-|
A|----------------------------------------------|
E|----------------------------------------------|

   Chorus
E|--------------------------------8-8---7-75-|
B|--------------------------------8-8---7-75-|
C|--------------------------------8-8---7-75-|
D|7-7-7-7-7-7-7-7-7-7-7-7-7-7-7-7-7-7-7-7-7-7-|
A|0-0-0-0-0-0-0-0-0-0-0-0-0-0-0-0-0-0-0-0-0-0-|
E|--------------------------------------------|

   First solo
E|---------------------------------------------------|
B|---------------------------------------------------|
C|108-8-(8)-10/12-13-108-10/13-15-17-1513-13-15/17---|
D|---------------------------------------------------|
A|---------------------------------------------------|
E|---------------------------------------------------|

E|-------------------------------------17-17-17-1715|
B|---------1513-13-13/16-15-16/18-18--16-16-16-1614|
C|16-15-15-------------------------------------------|
D|---------------------------------------------------|
A|---------------------------------------------------|
E|---------------------------------------------------|

E|15-15-1513-13-13-1311-11-11-11-11-11-|
B|14-14-1412-12-12-1210-10-10-10-10-10-|
C|---------------------------------------|
D|---------------------------------------|
A|---------------------------------------|
E|---------------------------------------|

   Before the Second Solo play this
E|--------------------------------------------|
B|--------------------------------------------|
C|--------------------------------------------|
D|--7-7------------7-7----------------7-7-7-7-|
A|--------------------------------------------|
E|--------------------------------------------|

   Second Solo
E|----------------------------------------------|
B|----------------------------------------------|
C|6/8-9p8-9/13-15h16-15-(12)--15h16p15-15h16p15-|
D|----------------------------------------------|
A|----------------------------------------------|
E|----------------------------------------------|

E|--------------------------------|
B|--------------------------------|
C|12h13p12-12h13p12-9h10p9-9h10p9-|
D|--------------------------------|
A|--------------------------------|
E|--------------------------------|

   The last chorus is played like the intro.

   The first bridge
E|------------------------------10-9-8------------|
B|------------------------------------------------|
C|--7-6-5----------7-6-5--------------------7-6-5-|
D|7--------------7------------7-----------7-------|
A|------------------------------------------------|
E|------------------------------------------------|

Red Hot Chili Peppers – Give It Away, аккорды - На Гитаре AmDm..