Melodia.Space
Search
Close this search box.
Главная🎸 АккордыRammsteinRammstein – Seemann (btab), аккорды

Rammstein – Seemann (btab), аккорды

Main Riff:
e|-------------------------|-----------------------|
B|-------------------------|-----------------------|
G|-------18----------16----|------14---------13----|
D|*---14----14----14---14--|---14----14---14---14--|
A|*-0----------0-----------|-0----------0----------|
E|-------------------------|-----------------------|

e|-------------------------|-------------------------|
B|-------------------------|-------------------------|                                                             
G|------11-----------11----|------13----------13-----|
D|----9-----9-----9-----9--|----9----9-----9------9--|
A|-11----------11----------|-11---------11-----------|
E|-------------------------|-------------------------|
                               
e|------------------------|-------------------------|
B|------------------------|-------------------------|        
G|------14---------13-----|-------11---------9------|
D|---11----11---11----11--|---11-----11---11----11--|
A|-9----------9-----------|-9-----------9-----------|
E|------------------------|-------------------------|

e|-------------------------|-------------------------|
B|-------------------------|-------------------------|
G|-------------------------|-------------------------|
D|------11----------10-----|-------11---------11----*|
A|---11----11----11----11--|----11----11---11----11-*|
E|-9-----------9-----------|-9-----------9-----------|

Очень быстро: (Distortion)
e|----------------------------------------
B|--3-3-3-3-3-3-3-3-3-3-3-3-3-3-3-3-3-3-3-
G|--2-2-2-2-2-2-2-2-2-2-2-2-2-2-2-2-2-2-2-
D|--0-0-0-0-0-0-0-0-0-0-0-0-0-0-0-0-0-0-0-
A|----------------------------------------
E|----------------------------------------

e|----------------------------------------
B|--1-1-1-1-1-1-1-1-1-1-1-1-1-1-1-1-1-1-1-
G|--0-0-0-0-0-0-0-0-0-0-0-0-0-0-0-0-0-0-0-
D|----------------------------------------
A|--3-3-3-3-3-3-3-3-3-3-3-3-3-3-3-3-3-3-3-
E|----------------------------------------

e|----------------------------------------
B|----------------------------------------
G|--3-3-3-3-3-3-3-3-3-3-3-3-3-3-3-3-3-3-3-
D|--3-3-3-3-3-3-3-3-3-3-3-3-3-3-3-3-3-3-3-
A|--1-1-1-1-1-1-1-1-1-1-1-1-1-1-1-1-1-1-1-
E|----------------------------------------
                                                                                                   
e|----------------------------------------|
B|----------------------------------------|
G|--2-2-2-2-2-2-2-2-2-2-2-2-2-2-2-2-2-2-2-|
D|--2-2-2-2-2-2-2-2-2-2-2-2-2-2-2-2-2-2-2-|
A|--0-0-0-0-0-0-0-0-0-0-0-0-0-0-0-0-0-0-0-|
E|----------------------------------------|

Rammstein – Seemann (btab), аккорды - На Гитаре AmDm..