Melodia.Space
Search
Close this search box.
Главная🎸 АккордыRammsteinRammstein – Nebel (btab), аккорды

Rammstein – Nebel (btab), аккорды

Verse:
G-----------------------|
D-----------------------|
A-----------------------|
E-3-5555555-6-555-3-555-|

G-----------|
D-----------|
A-----------|
E-3-5555555-| x2

Chords & Interlude:
G----------------------------------------|
D----------------------------------------|
A--------------------3-5555555-3-5555555-|
E-3-5555555-3-5555555--------------------|

G----------------------------------------|
D----------------------------------------|
A-5-7777777-----------3-555555-----------|
E-----------5-7777777----------3-5555555-|

Rammstein – Nebel (btab), аккорды - На Гитаре AmDm..