Melodia.Space
Search
Close this search box.
Главная🎸 АккордыRammsteinRammstein – Los, аккорды

Rammstein – Los, аккорды

Acoustic Guitar

Main Riff:
3 times
|----------------------|------------------------|
|----------------------|------------------------|
|.-5-x-x-6-x-x-8-x-x--.|-5-x-x-6-x-x-8/10-10-10-|
|.-5-x-x-6-x-x-8-x-x--.|-5-x-x-6-x-x-8/10-10-10-|
|--3-x-x-4-x-x-6-x-x---|-3-x-x-4-x-x-6/8--8--8--|
|----x-x---x-x---x-x---|---x-x---x-x------------|

Solo (Electric Clean w/):
|--------------------------------------|
|--------------------------------------|
|-------------------------------------.|
|----10--8----------------------------.|
|-3----------6---3--1--3--6--8--6--3---|
|--------------------------------------|
________________

for [CGCFAD]

|---------------------------------------------------------------------------
|---------------------------------------------------------------------------
|---------------------------------------------------------------------------
|-0-----1---3-----0-----1---3-----0-----1---3-----0-----1---3/5-5-5-----1---
|-0-----1---3-----0-----1---3-----0-----1---3-----0-----1---3/5-5-5-----1---
|-0-0-0-1-0-3-0-0-0-0-0-1-0-3-0-0-0-0-0-1-0-3-0-0-0-0-0-1-0-3/5-5-5-0-0-1-0-

-------------
-------------
-------------
-3-----0-----
-3-----0-----
-3-0-0-0-0-0-... repeat...

|------------------------------------------------------------|
|------------------------------------------------------------|
|------------------------------------------------------------|
|-----12---10-------------------------12---10----------------|
|-5------------8---5-3-5/8-8-10-8-5------------8--repeat-----|
|------------------------------------------------------------|

Rammstein – Los, аккорды - На Гитаре AmDm..