Melodia.Space
Главная - 🎸 Аккорды - Rammstein - Rammstein – Engel, аккорды

Rammstein – Engel, аккорды

1:--10-------------------------------10------------------------------|
2:--------10--13----10--12----8--10--------10--13----10--12----10----|
3:----------------------------------------------------------------7--|

C5 D5 Eb5 D5 C5 D5 D5 D5     x8
 
Dm                          C5 D5 Eb5 D5 C5 D5 D5 D5
Wer zu Lebzeit gut auf Erden,
     Dm                           C5 D5 Eb5 D5 C5 D5 D5 D5
Wird nach dem Tod ein Engel werden.
    Dm                               C5 D5 Eb5 D5 C5 D5 D5 D5
Den Blick 'gen Himmel fragst du dann,
  Dm                         C5 D5 Eb5 D5 C5 D5 D5 D5
Warum man sie nicht sehen kann.

Dm                    C5
 Erst wenn die Wolken schlafen gehn,
G5               Dm
 Kann man uns am Himmel sehn.
Dm                          C5
 Wir haben Angst und sind allein,
G5                       Dm
 Gott weis ich will kein Engel sein.

1:--10-------------------------------10------------------------------|
2:--------10--13----10--12----8--10--------10--13----10--12----10----|
3:----------------------------------------------------------------7--|

C5 D5 Eb5 D5 C5 D5 D5 D5     x8

    Dm                          C5 D5 Eb5 D5 C5 D5 D5 D5
Sie leben hinterm Sonnenschein,
  Dm                          C5 D5 Eb5 D5 C5 D5 D5 D5
Getrennt von uns unendlich weit.
    Dm                          C5 D5 Eb5 D5 C5 D5 D5 D5
Sie mussen sich an Sterne krallen, (ganz fest)
  Dm                          C5 D5 Eb5 D5 C5 D5 D5 D5
Damit sie nicht vom Himmel fallen.

Dm                    C5
 Erst wenn die Wolken schlafen gehn,
G                Dm
 Kann man uns am Himmel sehn.
Dm                          C5
 Wir haben Angst und sind allein,
G                        Dm
 Gott weis ich will kein Engel sein.

1:--10-------------------------------10------------------------------|
2:--------10--13----10--12----8--10--------10--13----10--12----10----|
3:----------------------------------------------------------------7--|     x2
  
C5 D5 Eb5 D5 C5 D5 D5 D5     x4
Gott weis ich will kein Engel sein.

C5 D5 Eb5 D5 C5 D5 D5 D5     x4
Gott weis ich will kein Engel sein.                  

Dm Dm Dm Dm  C5   x2

Dm C5 G5 Dm

Dm                    C5
 Erst wenn die Wolken schlafen gehn,
G5               Dm
 Kann man uns am Himmel sehn.
Dm                          C5
 Wir haben Angst und sind allein,
G5                       Dm
 Gott weis ich will kein Engel sein.

1:--10-------------------------------10------------------------------|
2:--------10--13----10--12----8--10--------10--13----10--12----10----|
3:----------------------------------------------------------------7--|     x2
  
C5 D5 Eb5 D5 C5 D5 D5 D5     x4
Gott weis ich will kein Engel sein.

C5 D5 Eb5 D5 C5 D5 D5 D5     x4
Gott weis ich will kein Engel sein.                  

1:--10---12--15--13--12--10--8--6--------------------10--12--10--|
2:--------------------------------10--8-10--10--8-10-------------|
3:---------------------------------------------------------------|
  
C5 D5 Eb5 D5 C5 D5 D5 D5     x4
Gott weis ich will kein Engel sein.

C5 D5 Eb5 D5 C5 D5 D5 D5     x4
Gott weis ich will kein Engel sein.  

1:--10------------------------------|
2:--------10--13----10--12----8-----|
3:-------------------------------7--| 

Rammstein – Engel, аккорды - На Гитаре AmDm..