Melodia.Space
Главная - 🎸 Аккорды - Rammstein - Rammstein – Eifersucht, аккорды

Rammstein – Eifersucht, аккорды

Drop D tuning [eBGDAD]

Keyboard Intro:
|--------------------|--------------------|
|--------------------|--------------------|
|--------------------|--------------------|
|-2--2-2-2--2--2-4-5-|-2--2-2-2--2--2-0---|
|--------------------|------------------2-|
|--------------------|--------------------|

Riff 1:
|----------------------------|
|----------------------------|
|----------------------------|
|----------------------------|
|-2--2--2-2--2--2--2-2-4--5--|
|-2--2--2-2--2--2--2-2-4--5--|
  pm...................]

Riff 2:
|----------------------------|
|----------------------------|
|----------------------------|
|----------------------------|
|-0--0--0-0--0--0--0-0-2--3--|
|-0--0--0-0--0--0--0-0-2--3--|

Verse Riff:
|----------------------------|
|----------------------------|
|----------------------------|
|----------------------------|
|-3--3--3-3--3--3--3-3-3--5--|
|-3--3--3-3--3--3--3-3-3--5--|
  pm....................]

Rammstein – Eifersucht, аккорды - На Гитаре AmDm..