Melodia.Space
Search
Close this search box.
Главная🎸 АккордыПесни из кино и мультфильмовПесни из кино и мультфильмов – Где-то на белом свете (х/ф “Кавказская пленница”), аккорды

Песни из кино и мультфильмов – Где-то на белом свете (х/ф “Кавказская пленница”), аккорды

Вся песня:
1|--------5---------------5-------------5---------3-----3-5--
2|--3-3-6----3-5-5--2-2-5----2-3--3-3-6----3-5-5----6-5------
3|-----------------------------------------------------------
4|-----------------------------------------------------------
5|-----------------------------------------------------------
6|-----------------------------------------------------------

1|-----7-10--7----------5-8--5----------5---------------5----
2|-8-8---------8-8--6-6--------6--3-3-6----3-5-5--2-2-5--2-3-
3|-----------------------------------------------------------
4|-----------------------------------------------------------
5|-----------------------------------------------------------
6|-----------------------------------------------------------

1|--5---5--11-10-8----------------6-5---------
2|------------------11-8---5---5------8--6-3--
3|--------------------------------------------
4|--------------------------------------------
5|--------------------------------------------
6|--------------------------------------------

Песни из кино и мультфильмов – Где-то на белом свете (х/ф “Кавказская пленница”), аккорды - На Гитаре AmDm..