Melodia.Space
Search
Close this search box.
Главная🎸 АккордыПесни из кино и мультфильмовПесни из кино и мультфильмов – Cristofer loran – Interstellar, аккорды

Песни из кино и мультфильмов – Cristofer loran – Interstellar, аккорды

e-----------------------------------------------------------------------part 1
b-0-----0----0-----0---0----0----0---0---0---0---0---0---0-----0----0---
g----0-----0----0----0---0-----0---0---0---0---0---0---0----0----0----0-  x2
d------------------------2---------------4-------------2----4----5------
a-----------------------------------------------------------------------
e-0---------------------------------------------------------------------

e------------------------------------------------------------------------part 2
b-----0----------0---------0----------0--------0------0---------0--------0---
g---------0----------0----------0---------0-------0-------0--------2--------2
d-2----------2----------4----------4---------5------5--------0--------0--     x2
a-3----------3----------5----------5---------6------6--------0-----------
e---------------------------------------------------------------------0--
- 

Песни из кино и мультфильмов – Cristofer loran – Interstellar, аккорды - На Гитаре AmDm..