Melodia.Space
Search
Close this search box.
Главная🎸 АккордыLumenLumen – 6 миллиардов, аккорды

Lumen – 6 миллиардов, аккорды

Вступление: рифф1 }x8 
            рифф2  
            рифф1  

рифф1:
E||----------------------------------------|
B||----------------------------------------|
G||-9---9---9---5---7---7---5---5---7---7--|
D||-7---7---7---7---7---7---7---7---7---7--|

рифф2:
E||---------------------------------------------|                 
B||---------------------------------------------|           
G||-9---9---9---9---9---10---10---10---10---10--|             
D||-7---7---7---7---7----7----7----7----7----7--| 


   Dsus2     Am *  Dsus2  Am *  Dsus2  C
Мы постоянно толкаем друг друга на край
                Am                Dsus2
Превращаясь в слепых на узком мосту
    Am *  Dsus2   Am * Dsus2 C
Безымянные пешки нелепой игры
            Am                  
Непонятно зачем, но всегда на посту
 B           Am              B
Она учит детей, он водит автобус
              Am                     B
Мы играем, ты слышишь? нам вместе теплей
              Am                      B
Но никто не знает, что со всем этим делать
              Am
Мы - шесть миллиардов одиноких людей

Припев:
	B              Am 
	Отпусти меня земля
	Dm                
	Я хочу быть ветром, я хочу быть птицей
	C
	Мне нужно дальше, нужно выше
	B
	Отпусти меня земля...слышишь?

Проигрыш = вступление:
рифф1 }x8 
рифф2  
рифф1  

рифф1:
E||----------------------------------------|
B||----------------------------------------|
G||-9---9---9---5---7---7---5---5---7---7--|
D||-7---7---7---7---7---7---7---7---7---7--|

рифф2:
E||---------------------------------------------|                 
B||---------------------------------------------|           
G||-9---9---9---9---9---10---10---10---10---10--|             
D||-7---7---7---7---7----7----7----7----7----7--| 

   Dsus2     Am *  Dsus2  Am *  Dsus2 C
Мало кто знает, для чего он живет
                Am                Dsus2
Мы боимся признаться в этом друг другу
    Am *  Dsus2   Am * Dsus2 C
Мы вообще очень много и часто боимся, 
              Am
Повторяя все те же ошибки по кругу.
 B           Am        B
В мире интернета и смсок, 
            Am              B
Мы за никами спрятались и у всех все окей
            Am              B
Но никто не скажет какая жизнь настоящая
            Am              
Мы  - шесть миллиардов одиноких людей

   Dsus2     Am *  Dsus2  Am *  Dsus2 C
Не нужно жалеть, что все так получилось
                Am               Dsus2
Жизнь прекрасна и все в наших руках
    Am *  Dsus2   Am * Dsus2 C
Давай сначала поверим, а потом и проверим
              Am
Что это правда на деле, а не на словах
 B           Am        B
Посмотри на друзей и на незнакомых
            Am        B
На звездное небо, вереницы огней
            Am        B
И может среди шести миллиардов
            Am        
Станет поменьше одиноких людей

Проигрыш = вступление:
рифф1 }x8 
рифф2  
рифф1  

рифф1:
E||----------------------------------------|
B||----------------------------------------|
G||-9---9---9---5---7---7---5---5---7---7--|
D||-7---7---7---7---7---7---7---7---7---7--|

рифф2:
E||---------------------------------------------|                 
B||---------------------------------------------|           
G||-9---9---9---9---9---10---10---10---10---10--|             
D||-7---7---7---7---7----7----7----7----7----7--| 

Припев:
	B              Am 
	Отпусти меня земля
	Dm                
	Я хочу быть ветром, я хочу быть птицей
	C
	Мне нужно дальше, нужно выше
	B
	Отпусти меня земля...слышишь?

Lumen – 6 миллиардов, аккорды - На Гитаре AmDm..