Melodia.Space
Главная - 🎸 Аккорды - Кукрыниксы - Кукрыниксы – Знай, аккорды

Кукрыниксы – Знай, аккорды

Проигрыш: B F# G#m Ebm E F# B

Соло: 
D|-9--9-8-6-------9-8-6-----9--9-8-6---8-9-
A|----------9-6---------9-6----------9-----
E|--------------7--------------------------

E|-7-7-5-7-7-5-7-7-5-7-7-

  Bm     D        A    Bm
Знай, сколько не будет ран,
  Em       F#      Bm           F#
Кровных и злых - тебя в беду не дам.
  Bm     D        A  Bm
Сам все до конца пройду,
  Em       F#      Bm      F#
Многого не пойму, но не отдам.

Припев:
  F# G A D Bm
  Потому и боль в глазах,
         G
  И всегда навзрыд,
        D
  И на чудесах,
          A      F#
  Мир для нас открыт.
          Bm
  И никогда назад,
         G
  И всегда как взрыв,
          D
  Только будет так,
       A F# B
  Остальное пыль.

Проигрыш: B F# G#m Ebm E F# B

Соло: 
D|-9--9-8-6-------9-8-6-----9--9-8-6---8-9-
A|----------9-6---------9-6----------9-----
E|--------------7--------------------------

E|-7-7-5-7-7-5-7-7-5-7-7-

Проигрыш: B F# G#m Ebm E F# B

Соло: 
D|-9--9-8-6-------9-8-6-----9--9-8-6---8-9-
A|----------9-6---------9-6----------9-----
E|--------------7--------------------------

E|-7-7-5-7-7-5-7-7-5-7-7-

  Bm     D        A    Bm
Знай, столько не будет фраз,
  Em       F#      Bm      F#
Чтоб как-то вдруг в груди огонь погас.
  Bm     D        A    Bm
И нас не разделить, не сжечь,
  Em       F#      Bm      F#
Не раздавить, не съесть, ты только знай!

Припев:
  F# G A D Bm
  Потому и боль в глазах,
         G
  И всегда навзрыд,
        D
  И на чудесах,
          A      F#
  Мир для нас открыт.
          Bm
  И никогда назад,
         G
  И всегда как взрыв,
          D
  Только будет так,
       A F# B
  Остальное пыль.

Проигрыш: B F# G#m Ebm E F# B }x2

+ Соло: 
e|-7--7-6-4---11-7---7--7-6-4-----7-
B|----------7-----------------7-4---

Кукрыниксы – Знай, аккорды - На Гитаре AmDm..