Melodia.Space
Главная 🎸 Аккорды Elvis Presley Elvis Presley – Love Me Tender (btab), аккорды

Elvis Presley – Love Me Tender (btab), аккорды

Main Riff:
E---3------------------------
A----3-2-3----0----3-2-0-2-3-
D-----------0---0------------
G----------------------------

E---3------------------------
A----3-2-3----0----3-2-0-2-3-
D-----------0---0------------
G----------------------------

E--------------------------------------
A------------------------------3-------
D-----------2-2-2--2-2-2---2-0---0--2--
G--------------------------------------

E--------------------------------------
A----------------------0----3-2-----3--
D-----------2-2-3--2-0---0------2-0----
G--------------------------------------

Elvis Presley – Love Me Tender (btab), аккорды - На Гитаре AmDm..