Melodia.Space
Главная 🎸 Аккорды Elvis Presley Elvis Presley – Love Me Tender, аккорды

Elvis Presley – Love Me Tender, аккорды

Main Riff:
   D                       A                        E7
E------------------------|------------------------|------------------------|
B--------3-----------3---|--------2-----------2---|--------3-----------2---|
G-----2-----2-----2-----2|-----2-----2-----2-----2|-----0-----0-----0-----0|
D--0---------------------|--2---------------------|------------------------|
A--------------0---------|--------------0---------|--0-----------0---------|
E------------------------|------------------------|------------------------|
  Love  me   ten    der   Love   me   true          Ne    ver   Let   me

   D                       D                        A
E------------------------|------------------------|------------------------|
B--------3-----------3---|--------3-----------3---|--------2-----------2---|
G-----2-----2-----2-----2|-----2-----2-----2-----2|-----2-----2-----2-----2|
D--0---------------------|--0---------------------|--2---------------------|
A--------------0---------|--------------0---------|--------------0---------|
E------------------------|------------------------|------------------------|
  go                       Oh    my    Dar   ling    I    love  you

   E7                      D
E------------------------|--------------2--|
G--------3-----------2---|--------3-----3--|
B-----0-----0-----0-----0|-----2-----2--2--|
D------------------------|--0-----------0--|
A--0-----------0---------|-----------------|
E------------------------|-----------------|
  And    I    Al    ways   will.

Elvis Presley – Love Me Tender, аккорды - На Гитаре AmDm..