Melodia.Space
Главная 🎸 Аккорды Elvis Presley Elvis Presley – Little Sister, аккорды

Elvis Presley – Little Sister, аккорды

Intro
E
|--------0---0--0--0---0--------0--0--0--0--0-----0--|
|--------0---0--0--0---0--------0--0--0--0--0--0--0--|
|--------1---1--1--1---1--------1--1--1--1--1--1--1--|
|--------2---2--2--2---2--------2--2--2--2--2--2--2--|
|------------x--x------------------------------x-----|
|----------------------------------------------------|
 

NC (E)
|---0----0--0---0------0--0--0--0----0--0--0--0---0--|
|---0----0--0---0------0--0--0--0----0--0--0--0---0--|
|---1----1--1---1------1--1--1--1----1--1--1--1---1--|
|---2----2--2---2------2--2--2--2----2--2--2--2---2--|
|----------------------------------------------------|
|----------------------------------------------------|

E7
|----------------------------------|-----------------|
|----------------------------------|-----------------|
|----------------------------------|-----------------|
|----------------------------------|-----------------|
|----------------------------------|-----------------|
|-------0----0---0---3------3------|-----0-----------|
Bend Bend |
x2 |


|-------3----0----------------------|---------------|
|-----------------3---0-------------|---------------|
|-------------------------2-3-2-0---|---------------|
|-----------------------------------|---2-----------|
|-----------------------------------|---------------|
|--(0)------------------------------|---------------|
bend

Chorus

A (7) E (7) B (7) C (7) B (7)

Verse (strum)

E5 E5 (6) E5 (7) E5 (6) E5 (7) E

Elvis Presley – Little Sister, аккорды - На Гитаре AmDm..