Melodia.Space
Search
Close this search box.
Главная🎸 АккордыElvis PresleyElvis Presley – Baby What You Want Me To Do, аккорды

Elvis Presley – Baby What You Want Me To Do, аккорды

Intro:
     E                      2x       A                      2x
E||--------------------------|  E||--------------------------|
B||--------------------------|  B||--------------------------|
G||--------------------------|  G||--------------------------|
D||--------------------------|  D||--2--2--4--4--5--5--4--4--|
A||--2--2--4--4--5--5--4--4--|  A||--0--0--0--0--0--0--0--0--|
E||--0--0--0--0--0--0--0--0--|  E||--------------------------|

     E                      2x
E||--------------------------|
B||--------------------------|
G||--------------------------|
D||--------------------------|
A||--2--2--4--4--5--5--4--4--|
E||--0--0--0--0--0--0--0--0--|

     B7                                 Riff 1   A7
E||--2--2--2--2--2--2--2--2--|     E||-----------3--3--3-----------------0--|
B||--0--0--0--0--0--0--0--0--|     B||-----------2--2--2-----------------0--|
G||--2--2--2--2--2--2--2--2--|     G||-----------2--2--2-----------------1--|
D||--1--1--1--1--1--1--1--1--|     D||-----------2--2--2-----------------2--|
A||--2--2--2--2--2--2--2--2--|     A||--2--1--0--0--0--0-----------------2--|
E||--------------------------|     E||--------------------2/3--2/3--2/3--0--|

Riff 2:
E||----------------------------------2--|
B||----------------------------------0--|
G||----------------------------------2--|
D||--------2----2--------2-----------1--|
A||--0h-2----------0h-2--------0--1--2--|
E||-------------------------0-----------|

Riff 3:
E||-----------------------------------0--|
B||-----------------------------------0--|
G||-----------0-----------------------1--|
D||-----0--2-----2--0-----0--2--------2--|
A||--2-----------------2--------0--1--2--|
E||-----------------------------------0--|

Intro: Riff 1 Riff 2

                E *
    We're goin' up, we're goin' down
                E *
    We're goin' up, down down up
    E *                       A7
    Any way you wanna let it roll
    A7              E *
    Yeah, yeah, yeah
               B7
    You got me doin' what you want me
       A7                       E Riff 3
    Oh baby what you want me to do

                E *
    You got me peepin' you got me hidin'
                E *
    You got me peep hide hide peep
    E *                       A7
    Any way you wanna let it roll
    A7          E *
    Yeah yeah yeah
               B7
    You got me doin what you want me
       A7                    E Riff 3
    Baby what you want me to do


Ending: Riff 3

Elvis Presley – Baby What You Want Me To Do, аккорды - На Гитаре AmDm..