Melodia.Space
Главная 🎸 Аккорды AC/DC AC/DC – You Shook Me All Night Long, аккорды

AC/DC – You Shook Me All Night Long, аккорды

E|--3-------------5--2--2---2--------2------------|
B|--3-------------3-------3----3--3--3------------|
G|--0-0-0-0-0-0-0-0------------------2------------|
D|--------------------------------------4p0--4h5--|
A|------------------------------------------------|
E|------------------------------------------------|

E|---------3-------------5--2--2----2-------2-|
B|---------3-------------3--------3---3--3--3-|
G|---------0-0-0-0-0-0-0-0------------------2-|
D|-2--3p0-------------------------------------|
A|--------------------------------------------|
E|--------------------------------------------|

AC/DC – You Shook Me All Night Long, аккорды - На Гитаре AmDm..