Melodia.Space
Главная 🎸 Аккорды AC/DC AC/DC – Wild reputation, аккорды

AC/DC – Wild reputation, аккорды

[Intro]

                                   F C
E|---------------3---3-------------1-0--|
B|-----------3-6-3---3-6-6---5 ͡ 0-1-1--|
G|-----------0-0-0---0-0-0---5 ͡ 0-2-0--|
D|---------------------------------3-2--|
A|---------------------------------3----|
E|-3-3-3-3-3-----------------------1----|


                                F C
E|------------3---3-------------1-0--|
B|--------3-6-3---3-6-6---5 ͡ 0-1-1--|
G|--------0-0-0---0-0-0---5 ͡ 0-2-0--|
D|------------------------------3-2--| X3
A|------------------------------3----|
E|--3-3-3-----------------------1----|



[Verse 1]

In a one horse town
                                F C
E|------------3---3-------------1-0--|
B|--------3-6-3---3-6-6---5 ͡ 0-1-1--|
G|--------0-0-0---0-0-0---5 ͡ 0-2-0--|
D|------------------------------3-2--|
A|------------------------------3----|
E|--3-3-3-----------------------1----|


They try to put you down
                                F C
E|------------3---3-------------1-0--|
B|--------3-6-3---3-6-6---5 ͡ 0-1-1--|
G|--------0-0-0---0-0-0---5 ͡ 0-2-0--|
D|------------------------------3-2--|
A|------------------------------3----|
E|--3-3-3-----------------------1----|

And make you feel out of place
                                F C
E|------------3---3-------------1-0--|
B|--------3-6-3---3-6-6---5 ͡ 0-1-1--|
G|--------0-0-0---0-0-0---5 ͡ 0-2-0--|
D|------------------------------3-2--|
A|------------------------------3----|
E|--3-3-3-----------------------1----|

Don't dare look in your face.
                                F C
E|------------3---3-------------1-0--|
B|--------3-6-3---3-6-6---5 ͡ 0-1-1--|
G|--------0-0-0---0-0-0---5 ͡ 0-2-0--|
D|------------------------------3-2--|
A|------------------------------3----|
E|--3-3-3-----------------------1----|



[Chorus]

      Got a wild reputation
                 C C C             C C C
E|-----------3---0-0-0--|------3---0-0-0--|
B|-------3-6-3---1-1-1--|--3-6-3---1-1-1--|
G|-------0-0-0---0-0-0--|--0-0-0---0-0-0--|
D|---------------2-2-2--|----------2-2-2--|
A|---------------3-3-3--|----------3-3-3--|
E|-3-3-3---------0-0-0--|----------0-0-0--|

Got a wild reputation
            C C C             C C C C
E|------3---0-0-0--|------3---0-0-0-0--|
B|--3-6-3---1-1-1--|--3-6-3---1-1-1-1--|
G|--0-0-0---0-0-0--|--0-0-0---0-0-0-0--|
D|----------2-2-2--|----------2-2-2-2--|
A|----------3-3-3--|----------3-3-3-3--|
E|----------0-0-0--|----------0-0-0-0--|



   Hey, hey!            Ooh yeah
                          F C
E|------3---3-------------1-0--|
B|--3-6-3---3-6-6---5 ͡ 0-1-1--|
G|--0-0-0---0-0-0---5 ͡ 0-2-0--|
D|------------------------3-2--|
A|------------------------3----|
E|------------------------1----|

                                F C
E|------------3---3-------------1-0--|
B|--------3-6-3---3-6-6---5 ͡ 0-1-1--|
G|--------0-0-0---0-0-0---5 ͡ 0-2-0--|
D|------------------------------3-2--|
A|------------------------------3----|
E|--3-3-3-----------------------1----|



[Verse 2]

On a hot summer day
Dollar bills come your way.
Somebody robbed the bank
Ooh, they picked you outta the ranks. Hey!



--[Chorus]--



[Bridge]

 F       C
(Oh, oh yeah)
 F   C
(Oh yeah)
 F       C
(Oh, oh yeah)
 F   C
(Oh yeah)
 F       C
(Oh, oh yeah)
  F   C
(Hey yeah)

                          F C
E|------3---3-------------1-0--|
B|--3-6-3---3-6-6---5 ͡ 0-1-1--|
G|--0-0-0---0-0-0---5 ͡ 0-2-0--|
D|------------------------3-2--|
A|------------------------3----|
E|------------------------1----|



[Verse 3]

And I'm comin' down Main Street
Get out of my way
I ain't stoppin' for nobody



--[Chorus]--



[Outro]

                     (Oh yeah) Gotta keep away
        G   G  F   F   F   C C C C C C
E|------3---3--1---1---1---0-0-0-0-0-0--|
B|--3-6-0---0--1---1---1---1-1-1-1-1-1--|
G|--0-0-0---0--2---2---2---0-0-0-0-0-0--|
D|------0---0--3---3---3---2-2-2-2-2-2--|
A|------2---2--3---3---3---3-3-3-3-3-3--|
E|------3---3--1---1---1---0-0-0-0-0-0--|

                 (Hey yeah) I ain't stoppin' for nobody
    G   G  F   F F F   C C C C C C
E|--3---3--1---1-1-1---0-0-0-0-0-0--|
B|--0---0--1---1-1-1---1-1-1-1-1-1--|
G|--0---0--2---2-2-2---0-0-0-0-0-0--|
D|--0---0--3---3-3-3---2-2-2-2-2-2--|
A|--2---2--3---3-3-3---3-3-3-3-3-3--|
E|--3---3--1---1-1-1---0-0-0-0-0-0--|

                 (Oh yeah) I've got a wild reputation
    G   G  F   F   F   C C C C C C
E|--3---3--1---1---1---0-0-0-0-0-0--|
B|--0---0--1---1---1---1-1-1-1-1-1--|
G|--0---0--2---2---2---0-0-0-0-0-0--|
D|--0---0--3---3---3---2-2-2-2-2-2--|
A|--2---2--3---3---3---3-3-3-3-3-3--|
E|--3---3--1---1---1---0-0-0-0-0-0--|

                  (Hey yeah)	
    G   G  F   F F F   C
E|--3---3--1---1-1-1---0--|
B|--0---0--1---1-1-1---1--|
G|--0---0--2---2-2-2---0--|
D|--0---0--3---3-3-3---2--|
A|--2---2--3---3-3-3---3--|
E|--3---3--1---1-1-1---0--| 

AC/DC – Wild reputation, аккорды - На Гитаре AmDm..