Melodia.Space
Главная 🎸 Аккорды AC/DC AC/DC – What’s Next To The Moon, аккорды

AC/DC – What’s Next To The Moon, аккорды

e|-------------------------------------------------------------------------|
b|-------------------------------------------------------------------------|
g|-------------------------------------------------------------------------|
d|-0---0---2---0---0---2---0---0---2---0---0---2---0---0---2---0---0---2---|
a|---0-----2-----0-----2-----0-----2-----0-----2-----0-----2-----0-----2---|
e|-------------------------------------------------------------------------|


e|-------------------------------------------------------------------------|
b|-------------------------------------------------------------------------|
g|-------------------------0---0---2---0---0---2---------------------------|
d|-0---0---2---0---0---2-----0-----2-----0-----2---0---0---2---0---0---2---|
a|---0-----0-----0-----2-----------------------------0-----2-----0-----2---|
e|-------------------------------------------------------------------------|

   it's her love.....            play four times
e|-----------------2-2-----------------------------------------------------|
b|---------------2-3-3-2---------------------------------------------------|
g|-------------1-2-2-2-2-1-------------------------------------------------|
d|-------------2-2-0-0-2-2-------------------------------------------------|
a|-------------2-0-----0-2-------------------------------------------------|
e|-------------0---------0-------------------------------------------------|

   but what's next to the moon
e|------------------2------------------------------------------------------|
b|--------------2---3---2--------------------------------------------------|
g|--------------2---2---2--------------------------------------------------|
d|--------------2---0---2--------------------------------------------------|
a|--------------0-------0--------------------------------------------------|
e|-------------------------------------------------------------------------|

AC/DC – What’s Next To The Moon, аккорды - На Гитаре AmDm..