Melodia.Space
Главная 🎸 Аккорды AC/DC AC/DC – Walk All Over You, аккорды

AC/DC – Walk All Over You, аккорды

-----------3---------------------------------------------------------|
-----------2---------------------------------------------------------|
--------------2------------------------------------------------------|
-2-------------------------------------------------------------------|
-2-------------------------------------------------------------------|
----2/3--------------------------------------------------------------|

------3-----3------------------------------------------------------------|
------2-----2------------------------------------------------------------|
--------2------2---------------------------------------------------------|
-2------2------2---------------------------------------------------------|
-2-----------------------------------------------------------------------|
---3---------------------------------------------------------------------|

AC/DC – Walk All Over You, аккорды - На Гитаре AmDm..