Melodia.Space
Главная 🎸 Аккорды AC/DC AC/DC – Up To My Neck In You, аккорды

AC/DC – Up To My Neck In You, аккорды

Intro:
E|----------------------|--------------------------|------------------------|
B|----------------------|--------------------------|------------------------|
G|-------------------2--|--------------------------|----------------------2-|
D|----------5--5--5--2--|--------4-----2-----4--2--|----2--4-----5--5--5--2-|
A|----------5--5--5--0--|-----0--0--0--0--0--0--0--|----0--0--0--5--5--5--0-|
E|----------3--3--3-----|--------------------------|-------------3--3--3----|
 
Verse:
E|--------------------------|-------------------------|------------------------|
B|--------------------------|-------------------------|------------------------|
G|----------------------2---|-------------------------|----------------------2-|
D|----2--4-----5--5--5--2---|----2--4-----5-----4--2--|----2--4-----5--5--5--2-|
A|----0--0--0--5--5--5--0---|----0--0--0--0--0--0--0--|----0--0--0--5--5--5--0-|
E|-------------3--3--3------|-------------------------|-------------3--3--3----|

E|-------------------------|-------------------------|------------------------|
B|-------------------------|-------------------------|------------------------|
G|-------------------------|----------------------2--|------------------------|
D|----2--4-----5-----4--2--|----2--4-----5--5--5--2--|----2--4-----5-----4--2-|
A|----0--0--0--0--0--0--0--|----0--0--0--5--5--5--0--|----0--0--0--0--0--0--0-|
E|-------------------------|-------------3--3--3-----|------------------------|
up:
E|-------------------------|-------------------------|------------------------|
B|----------------------3--|-------------------------|----------------------3-|
G|-------------5--5--5--2--|----2--4-----5-----4--2--|----2--4-----5--5--5--2-|
D|----2--4-----5--5--5--0--|----0--0--0--0--0--0--0--|----0--0--0--5--5--5--0-|
A|----0--0--0--3--3--3-----|-------------------------|-------------3--3--3----|
E|-------------------------|-------------------------|------------------------|
down again:
E|-------------------------|-------------------------|------------------------|
B|-------------------------|-------------------------|------------------------|
G|----2--4-----5-----4--2--|----2--4--------------2--|------------------------|
D|----0--0--0--0--0--0--0--|----0--0--0--5--5--5--2--|----2--4-----5-----4--2-|
A|-------------------------|-------------5--5--5--0--|----0--0--0--0--0--0--0-|
E|-------------------------|-------------3--3--3-----|------------------------|

E|-------------------------|-------------------------|------------------------|
B|-------------------------|-------------------------|------------------------|
G|----------------------2--|-------------------------|------------------------|
D|----2--4-----5--5--5--2--|----2--4-----5-----4--2--|----2--4-----5-----4--2-|
A|----0--0--0--5--5--5--0--|----0--0--0--0--0--0--0--|----0--0--0--0--0--0--0-|
E|-------------3--3--3-----|-------------------------|------------------------|

E|----------------------|-----------------------|------------------|
B|----------------------|-----------------------|--3------3------3-|
G|----------------------|-----------------------|--2------2------2-|
D|--2----2----2----2----|--2--2--2----2----2----|--0------0------0-|
A|--2----2----2----2----|--2--2--2----2----2----|------------------|
E|--0----0----0----0----|--0--0--0----0----0----|------------------|

E|--------------------|
B|----3-------------2-|
G|----2-------------2-|
D|----0------5------2-|
A|-----------5------0-|
E|-----------3--------|

AC/DC – Up To My Neck In You, аккорды - На Гитаре AmDm..