Melodia.Space
Главная 🎸 Аккорды AC/DC AC/DC – Touch Too Much (btab), аккорды

AC/DC – Touch Too Much (btab), аккорды

Chorus:
G|-----------------------------------|
D|-----------------------------------|
A|-----------------0-0-0-2-3-0-5-3-2-| x4
E|-0-0-2-3-3-3-3-3-------------------|

G|-----------------------|
D|-----------------------| Figure out the timing. I'm not sure if that's the
A|-----------------------| correct amount of open e strings.
E|-0-0-0-0-0-0-0-0-0-0-0-|

Verse:
G|----------------------------------------------------------------|
D|----------------------------------------------------------------|
A|----------------3-3-3-3-3-3-3-3-0-0-0-0-0-0-0-0-0-0-0-0-0-0-0-0-| x2
E|-0-0-0-0-0-0-0-0------------------------------------------------|

Pre-chorus:
G|-------------------------------------------------|
D|-------------------------------------------------|
A|-3-3-3-3-3-3-3-3-3-3-3-3-3-3-3-3-0-0-0-0-0-0-0-0-|
E|-------------------------------------------------|

E|---------------------------------|
B|---------------------------------|
G|-0-0-0-0-0-0-0-0-3-3-3-3-3-3-3-3-|
D|---------------------------------|

G|---------------------------------|
D|---------------------------------|
A|-5-5-5-5-5-5-5-5-5-5-5-5-5-5-5-5-|
E|---------------------------------|

Chorus:
G|-----------------------------------|
D|-----------------------------------|
A|-----------------0-0-0-2-3-0-5-3-2-| x4
E|-0-0-2-3-3-3-3-3-------------------|

During the guitar solo the bass does 
the pre-chorus and then this little bit:

G|---------------------|
D|---------------------|
A|-------------2-3-0---|
E|-0-3-5-5-3-5-------0-|

Interlude:
G|-----------------|
D|-----------------|
A|---------0-0-3-5-| x2
E|-0-0-2-3---------|

AC/DC – Touch Too Much (btab), аккорды - На Гитаре AmDm..