Melodia.Space
Главная 🎸 Аккорды AC/DC AC/DC – TNT, аккорды

AC/DC – TNT, аккорды

Intro:
E-|---|----|-----------------------------
B-|---|----|-----------------------------
G-|---|----|-----------------------------
D-|-2-|----|-2---------------------------
A-|-2-|----|-2-----5--5------------------
E-|-0-|----|-0-----3--7---3--5--3--------
   L.R.			             P.M.
 
Verse:
E--|-------------------------------------
B--|-------------------------------------
G--|-------------------------------------
D--|--2----------------------------------
A--|--2-----5--7-------------------------
E--|--0-----3--5---3--5--3---------------	        
 		               	P.M.
 
Сhorus:	        
E--|----------|--------------------------------------
B--|----------|--------------------------------------
G--|----------|--------------------------------------
D--|--------2-|--------------------------------------
A--|--7--5--2-|--5---7-------------------------------
E--|--5--3--О-|--3---5-------------------------------
 			  L.R.

AC/DC – TNT, аккорды - На Гитаре AmDm..