Melodia.Space
Главная 🎸 Аккорды AC/DC AC/DC – The Jack, аккорды

AC/DC – The Jack, аккорды

Вступление:
E||-----------------------------------------------------|
B||-----------------------------------------------------|
G||-----------------------------------------------------|
D||--4--4--6--7--2--2--4--5--|--4--4--6--7--2--2--4--5--|
A||-----------------------------------------------------|
E||-----------------------------------------------------|
                                                                           
----------------------------------------------------|
----------------------------------------------------|
----------------------------------------------------|
--------------4--4--6--7--2--2--4--5-----2--3--4----|
-----------------------------2--2--4--5--0--1--2----|
-----------------------------0--0--0--0-------------|

Куплет:                                                     
-------------------------------------------------------------------------------|
-------------------------------------------------------------------------------|
-------------------------------------------------------------------------------|
-------------------------------------------------------------------------------|
--2--2--4--4--5--5--4--4-----2--2--4--4--5--5--4--4------2--2--4--4--5--5--4--4|
--0--0--0--0--0--0--0--0-----0--0--0--0--0--0--0--0------0--0--0--0--0--0--0--0|
                                                      
-----------------------------------------------------|
-----------------------------------------------------|
-----------------------------------------------------|
-----------------------------2--2--4--4--2--2--4--4--|
--2--2--4--4--5--5--4--4-----0--0--0--0--0--0--0--0--|
--------------0--0--0--0--0--0--0--0-----------------|
                                                     
-----------------------------------------------------|
-----------------------------------------------------|
-----------------------------------------------------|
--------------2--2--4--4--2--2--4--4-----------------|
--0--0--0--0--0--0--0--0-----2--2--4--4--5--5--4--4--|
-----------------------------0--0--0--0--0--0--0--0--|

-----------------------------------------------------|
-----------------------------------------------------|
-----------------------------4--4--4--4--4--4--4--4--|
-----------------------------4--4--4--4--4--4--4--4--|
--2--2--4--4--5--5--4--4-----2--2--2--2--2--2--2--2--|
--------------0--0--0--0--0--0--0--0-----------------|
                                                                               
-------------------------------------------------------------------------------|
-------------------------------------------------------------------------------|
--------------------------2--2--2--2--2--2--2--2-------------------------------|
--------------------------2--2--2--2--2--2--2--2--------------------2--3--4----|
--0--0--0--0--0--0--0--0-----2--2--4--4--5--5--4--4-----2--2--2--2--0--1--2----|
-----------------------------0--0--0--0--0--0--0--0-----0--0--0--0--0--0--0----|

Соло:                                                                       
------------------1--2------------------------------------------------|
---------1--3-----------3--1---------------------------------3--------|
------2--------2--------------2--0--2--0-----0----------0----2--------|
------------------------------------------3-----3--0----1----4--------|
--------------------------------------------------------1-------------|
----------------------------------------------------------------------|
                                                                               
-----------0--2--------------0--2--0--------------0--2----0--1--------2--5------
-----0--3-----------------0-----------3-----0--3--------------------------------
--2--------------------2-----------------2--------------------------------------
--------------------------------------------------------------------------------
--------------------------------------------------------------------------------
--------------------------------------------------------------------------------

--2--1--2--0-----------3--5----5----8-----5--3--1--3--3--5--3--1-----3-----1--|
--------------3------------------------8--------------------------3-----3-----|
------------------------------------------------------------------------------|
------------------------------------------------------------------------------|
------------------------------------------------------------------------------|
------------------------------------------------------------------------------|

--------------------------------------------------------------------------------
--------------------------------------------1-----------------------------------
--0--2--------0--2--0--2--0--2--0--2--0--------2--0-----------------------------
-----------------------------------------3-----------3--0-----3-----0-----------
-----------------------------------------------------------3-----3-----------3--
--------------------------------------------------------------------------------
                                                                                
--5--8--10------8--10--10----10--8------7--8--------7--5--13--15--13--15--13----
------------10----------------------10----------------------------------------15
--------------------------------------------------------------------------------
--------------------------------------------------------------------------------
--------------------------------------------------------------------------------
--------------------------------------------------------------------------------
                                                                                
--13--15--13--12--10--8--10--8-------------------5--5--4-----3--1-----1--3--5--5
--------------------------------10--8--10--8--8-----------6--------3------------
--------------------------------------------------------------------------------
--------------------------------------------------------------------------------
--------------------------------------------------------------------------------
--------------------------------------------------------------------------------
                                                                  
--8--------------------------------------------8------8---|
-----10--9--8--6-----8-----6----------------8--10--8--10--|
------------------7-----7-----------7---------------------|
----------------------------------------------------------|
----------------------------------------------------------|
----------------------------------------------------------|

AC/DC – The Jack, аккорды - На Гитаре AmDm..