Melodia.Space
Главная 🎸 Аккорды AC/DC AC/DC – The Honey Roll, аккорды

AC/DC – The Honey Roll, аккорды

e|---------------------------------------------|
b|---------------------------------------------|
g|---------------------------------------------|
D|----------2--------------2-------------------|
A|-----1h2------------1h2----------------------|
E|-------------------------------3--2--0-------|

e|------------------------------------------------------------------|
b|------------------------------------------------------------------|
g|---------------------------------------------------------------2--|
D|----2---------2----------------------------------2-------------2--|
A|--------1h2-------------------7----------1h2-------------------0--|
E|-----------------------4h5--------------------------------4-------| x4 

AC/DC – The Honey Roll, аккорды - На Гитаре AmDm..