Melodia.Space
Главная 🎸 Аккорды AC/DC AC/DC – Squealer, аккорды

AC/DC – Squealer, аккорды

---------------------------|------------------|-----------------------|
---------------------------|------------------|-----------------------|
---------------------------|------------------|-----------------------|
---------------------------|--------------3---|-----------------------|
---5--3--5---5-----3---5---|---3---5---5------|--5--3--5--5-----3--5--|
----------------5----------|------------------|--------------5--------|

--------------------|
--------------------|
--------------------|
--------------------|
---3--5--5----------|
--------------------|

AC/DC – Squealer, аккорды - На Гитаре AmDm..