Melodia.Space
Главная 🎸 Аккорды AC/DC AC/DC – Shoot To Thrill, аккорды

AC/DC – Shoot To Thrill, аккорды

Intro:
e|---------
B|---------
G|-------2-
D|-2-----2-
A|-0-3-4-0-
E|---------
 
Main Riff: (verses & the 1st half of the solo)
-3----2----3----2------2-----
-0----3----0----3------3-----
-0----2----0----2------2---2-
-0----0----0----0------0---2-
-------------------------3-0-
-----------------------------
 
------------------------------
------------------------------
-7----7----7----7------7------
-5----7----5----7------7------
------5---------5------5--(7)-
-------------------------8-5--
                         ^    No one will notice if you dont play
                         |    this whole chord & it`s a pain in
                         +--- the ass, so dont worry about it!
 
The piece that comes before the chorus:
-------------------------------------------------------------
-------------------------------------------------------------
-5---------5------5---------5------7---------7-------------7-
-5----5----5------5----5----5------7----7----7-------------7-
-3----5----3------3----5----3------5----7----5-------------5-
------3----------------3----------------5--------------------
 
-----------------------------------
-----------------------------------
-----------------------------------
-2---2-2-2-2-2-2-2-2-2-2-2-2-2-2-2-
-2---2-2-2-2-2-2-2-2-2-2-2-2-2-2-2-
-0---3-3-0-3-3-0-3-3-0-3-3-0-3-3-0-
 
Chorus:
---------------3---3---3-3-3-2---2---2-2-2--2---2---2-2-2----
---------------0---0---0-0-0-3---3---3-3-3--3---3---3-3-3--0-
-2---2---2-2-2-0---0---0-0-0-2---2---2-2-2--2---2---2-2-2--0-
-2---2---2-2-2-0---0---0-0-0-0---0---0-0-0--0---0---0-0-0--0-
-0---0---0-0-0-2---2---2-2-2-------------------------------^-
---------------3---3---3-3-3-------------------------------|-
                            Just smack the open strings --+
                            once as you change back to the 1st chord
 
-------------------------------------------------------------
-------------------------------------------------------------
-2---2---2-2-2---------------7---7---7-7-7--7---7---7-7-7----
-2---2---2-2-2-5---5---5-5-5-7---7---7-7-7--7---7---7-7-7--0-
-0---0---0-0-0-5---5---5-5-5-5---5---5-5-5--5---5---5-5-5--0-
---------------3---3---3-3-3---------------------------------

AC/DC – Shoot To Thrill, аккорды - На Гитаре AmDm..