Melodia.Space
Главная 🎸 Аккорды AC/DC AC/DC – Shook Me All Night Long, аккорды

AC/DC – Shook Me All Night Long, аккорды

-|-3--|-5--3-3---3-2-0-|----2-|---------|-3--|-5-3-3---3-2-3-||----|--------|-
-|-3--|-3------3-----3-|----3-|---------|-3--|-3-----3-----3-||----|--------|-
-|-0--|-0--------------|-33-2-|-----2---|-0--|-0-----------0-||----|-5-5--5-|-
-|----|----------------|----0-|-3-4---3-|----|-------------0-||-5--|-5-55-5-|-
-|----|----------------|------|---------|----|---------------||-5--|-3-35-3-|-
-|----|----------------|------|---------|----|---------------||-3--|----3---|-

-|----|----------||----|--------|-------|----||---------------------------|---
-|----|----------||----|--------|-------|----||---------------------------|---
-|--7-|----7---7-||----|-5-5--5-|--7-77-|-5--||-0-0---------0-------0-----|---
-|-57-|-5-57-5-7-||-5--|-5-55-5-|-57-77-|-5--||-0-0-------2---2---0---0---|---
-|-55-|-5-55-5-5-||-5--|-3-35-3-|-55-55-|-3--||-2-2-0-2-3-------2-------0-|---
-|-3--|-3-3--3---||-3--|----3---|-3-----|----||-3-3-----------------------|---
5x

-|-----------||----|--------|----|----------||----|--------|-------|----|-----
-|-----------||----|--------|----|----------||----|--------|-------|----|-----
-|-7-77--5-5-||----|-5-5--5-|--7-|----7---7-||----|-5-5--5-|--7-77-|-5--|-----
-|-7-77--5-5-||-5--|-5-55-5-|-57-|-5-57-5-7-||-5--|-5-55-5-|-57-77-|-5--|-----
-|-5-55--3-3-||-5--|-3-35-3-|-55-|-5-55-5-5-||-5--|-3-35-3-|-55-55-|-3--|-----
-|-----------||-3--|----3---|-3--|-3-3--3---||-3--|----3---|-3-----|----|-----
2x 3x

-||---------------------------|-----------||---------------------------|----|-
-||---------------------------|-----------||---------------------------|----|-
-||-0-0---------0-------0-----|-7-77--5-5-||-0-0---------0-------0-----|-7--|-
-||-0-0-------2---2---0---0---|-7-77--5-5-||-0-0-------2---2---0---0---|-7--|-
-||-2-2-0-2-3-------2-------0-|-5-55--3-3-||-2-2-0-2-3-------2-------0-|-5--|-
-||-3-3-----------------------|-----------||-3-3-----------------------|----|-
3x

------|-----------|----3------------|---------|-----------|-----------------|-
------|-----------|------3-6--------|---------|-----------|-----6-6-----8-8-|-
-77--5|-77777777--|-5^-------5^-3---|---------|-3-------3-|-5/7-----7/9-----|-
-77--5|-77777777--|---------------5-|-5---3-5-|----3--3---|-----------------|-
-55--3|-55555555--|-----------------|---3-----|-----3-----|-----------------|-
------|-----------|-----------------|---------|-----------|-----------------|-
hold-----release

-|---------||-10------|--------------|-13^13^-10-13-10-|-----------------|----
-|----8-10-||----10-8-|-11-11--8---8-|-----------------|-13-11--------13-|----
-|-10------||---------|----------9---|-----------------|-------12/-15----|----
-|---------||---------|--------------|-----------------|-----------------|----
-|---------||---------|--------------|-----------------|-----------------|----
-|---------||---------|--------------|-----------------|-----------------|----


-|-------------||----------------------|-18^18^-17-15-17-|----15----15-|------
-|----16----16-||----------------------|-----------------|-17----18----|------
-|-15----15----||-15-13----15-13----13-|-----------------|-------------|------
-|-------------||-------15-------15----|-----------------|-------------|------
-|-------------||----------------------|-----------------|-------------|------
-|-------------||----------------------|-----------------|-------------|------

-|-------------|----15-||----15-17-15-||---------------------------|------|---
-|----------15-|-17----||-17----------||---------------------------|------|---
-|-17-17-15----|-------||-------------||-0-0---------0-------0-----|-7-77-|---
-|-------------|-------||-------------||-0-0-------2---2---0---0---|-7-77-|---
-|-------------|-------||-------------||-2-2-0-2-3-------2-------0-|-5-55-|---
-|-------------|-------||-------------||-3-3-----------------------|------|---

-|------||----|-----------|---------------------|----------|------------------
-|------||----|-----------|---------------------|----------|------------------
-|-5--5-||-7--|-7-77--5-7-|-77777777777777777---|----------|------------------
-|-5--5-||-7--|-7-77--5-7-|-77777777777777777-5-|----------|------------------
-|-3--3-||-5--|-5-55--3-5-|-55555555555555555-5-|----------|------------------
-|------||----|-----------|-------------------3-|----------|------------------
4x

AC/DC – Shook Me All Night Long, аккорды - На Гитаре AmDm..