Melodia.Space
Главная 🎸 Аккорды AC/DC AC/DC – She’s Got Balls, аккорды

AC/DC – She’s Got Balls, аккорды

Intro + verse (1st guitar):
E|-------------------|-----------------------|----------------------|
B|-------------------|-----------------------|----------------------|
G|-------------------|-----------------------|----------------------|
D|-------------------|--------------------5--|----------------------|
A|----------------0--|--0----0----0----0--3--|------0----0----0-----|
E|-------------------|-----------------------|-------------------3--|

and so on...
|-----------------------|----------------------|-----------------------|
|-----------------------|----------------------|-----------------------|
|-----------------------|----------------------|-----------------------|
|--------------------5--|----------------------|--------------------5--|
|--0----0----0----0--3--|------0----0----0-----|--0----0----0----0--3--|
|-----------------------|-------------------3--|-----------------------|
 
2nd guitar plays a little bit different:
|-------------------|-----------------------|----------------------|
|-------------------|-----------------------|----------------------|
|-------------------|-----------------------|----------------------|
|-------------------|--------------------5--|----------------------|
|-------------------|--0----0----0----0--3--|------0----0----0-----|
|----------------3--|-----------------------|-------------------3--|

|-----------------------|
|-----------------------|
|-----------------------|
|-----------------7--5--|
|--0----0----0----5--3--|
|-----------------------|

AC/DC – She’s Got Balls, аккорды - На Гитаре AmDm..