Melodia.Space
Главная 🎸 Аккорды AC/DC AC/DC – Safe In New York City, аккорды

AC/DC – Safe In New York City, аккорды

Intro: Distortion
E|----------------------------------------|
B|----------------------------------------|
G|----------------------------------------|
D|----5----7-------------5----7----5----2-|
A|----5----7-------------5----7----5----2-|
E|----3----5-------------3----5----3----0-|

Verse: No distortion for rest of song
E|----------------------------------------------------------|
B|----------------------------------------------------------|
G|----------------------------------------------------------|
D|----------------------------------------------------------|
A|-----0---5--0---7--0---8--0--7---0---5--0---7---0---5---2-|
E|-----0---3--0---5--0---6--0--5---0---3--0---5---0---3---0-|

Chorus:
E|-------------------------------------------------|
B|-------------------------------------------------|
G|-------------------------------------------------|
D|-------------------------------------------------|
A|-----------------------------------------------2-|
E|-----0--6--5--3--0--6--5--3--0--6--5--3--0-----0-|

AC/DC – Safe In New York City, аккорды - На Гитаре AmDm..