Melodia.Space
Главная 🎸 Аккорды AC/DC AC/DC – Rock N Roll Damnation (2 вариант), аккорды

AC/DC – Rock N Roll Damnation (2 вариант), аккорды

Intro:
E|--------------------------|------------------|--------------------------|
B|-----------------8--------|------------------|-----------------7--------|
G|------------9-------------|------------------|------------7-------------|
D|-------7------------------|------------------|-------7------------------|
A|--0-----------------------|------------------|--0-----------------------|
E|--------------------------|------------------|--------------------------|
 
|------------------|--------------------------|------------------|
|------------------|-----------------8--------|------------------|
|------------------|------------9-------------|------------------|
|------------------|-------7------------------|------------------|
|------------------|--0-----------------------|------------------|
|------------------|--------------------------|------------------|
Verse:
|--------------------------|-------------------|-----------------------|
|-----------------7--------|----------------2--|-------3----3--2-------|
|------------7-------------|----------------2--|-------2----2--2-------|
|-------7------------------|----------------2--|-------4----4--2-------|
|--0-----------------------|----------------0--|-------0----0--0----0--|
|--------------------------|-------------------|-----------------------|

Chorus:
|-------------------------|---3----3--2------2-----|-------------------------|
|--3----3--2----------2---|---3----3--3------3--2--|----2--3----3--2---------|
|--2----2--2----------2---|---0----0--2------2--2--|----2--2----2--2---------|
|--4----4--2----------2---|---0----0--0------0--2--|----2--4----4--2--2--2---|
|--0----0--0----3--4--0---|---2----2------------0--|----0--0----0--0--0--0---|
|-------------------------|---3----3---------------|-------------------------|

|--2--------------2--|---------------------|
|--3--------------3--|------------------2--|
|--2--------------2--|--1------------1--2--|
|--0--------------0--|--2------------2--2--|
|--------------------|--2------------2--0--|
|--------------------|--0------------0-----|

AC/DC – Rock N Roll Damnation (2 вариант), аккорды - На Гитаре AmDm..