Melodia.Space
Главная 🎸 Аккорды AC/DC AC/DC – Nervous Shakedown, аккорды

AC/DC – Nervous Shakedown, аккорды

Intro:
E|---------------------|---------------------|------------|
B|---------------------|---------------------|------------|
G|--6---4---2----------|---------------------|------------|
D|--4---2---0----------|--5---5---2----------|------------|
A|---------------------|--3---2---0----------|--5---5---2-|
E|---------------------|---------------------|--3---2---0-|
 
theme: end theme
E|--------------------|-------------------------|----------------------------|
B|--------------------|-------------------------|------------3-3-3-----------|
G|--------------------|---------------------2-2-|--2--0-0-0--2-2-2--2--------|
D|--------------------|--2---2-2---2--------2-2-|--2--0-0-0--0-0-0--2--------|
A|------------------2-|--2---2-2-2-2--------0-0-|--0---------0-0-0--0------2-|
E|----------------0-3-|--0---0-0-3-0------------|-----3-3-3--------------0-3-|

bridge:
E|-------------------------|--------------------------|----------------|
B|-------------------------|------------3-3-3---------|--------------3-|
G|---------------------2-2-|--2--0-0-0--2-2-2--2------|--2------5----2-|
D|--2---2-2---2--------2-2-|--2--0-0-0--0-0-0--2------|--2------5----0-|
A|--2---2-2-2-2--------0-0-|--0---------0-0-0--0------|--0------0----0-|
E|--0---0-0-3-0------------|-----3-3-3----------------|----------------|

don't tell...
E|-----------------------------|----------------|
B|-----------------------------|--------------3-|
G|-----------------------------|--2------5----2-|
D|--0-2-------0-2-------0-2----|--2------5----0-|
A|------3-0-------3-0-------3--|--0------0----0-|
E|-----------------------------|----------------|

cause if... it's a dirty....
E|----------------------------|-------------------|------------------------|
B|----------------------------|---------3---------|---------3--------------|
G|----------------------------|-4---2---2----2--4-|-4---2---2----2--4------|
D|--0-2-------0-2-------0-2---|-4---2---0----2--4-|-4---2---0----2--4------|
A|------3-0-------3-0-------3-|-2---0--------0--2-|-2---0--------0--2----2-|
E|----------------------------|-------------------|--------------------0-3-|

shakedown... another nervous shakedown theme:
E|-------------------------|----------------------------|
B|-------------------------|------------3-3-3-----------|
G|---------------------2-2-|--2--0-0-0--2-2-2--2--------|
D|--2---2-2---2--------2-2-|--2--0-0-0--0-0-0--2--------|
A|--2---2-2-2-2--------0-0-|--0---------0-0-0--0------2-|
E|--0---0-0-3-0------------|-----3-3-3--------------0-3-|

AC/DC – Nervous Shakedown, аккорды - На Гитаре AmDm..