Melodia.Space
Главная 🎸 Аккорды AC/DC AC/DC – Money Talks (tab), аккорды

AC/DC – Money Talks (tab), аккорды

      (opening riff)
 E :-------------------------------|
 B :-------------------------------|
 G :-16-14-16-14-17-|16-14-12-14-12-|-16-14-16-14-17-|16-14-12-12-14-12|
 D :-12-12-12-12-12-|12-12-12-12-12-|-12-12-12-12-12-|12-12-12-12-12-12|
 A :-------------------------------|
 E :-------------------------------|
 
                                                   
 E :-------------------------------|
 B :-------------------------------|
 G :-16-14-16-14-17-|16-14-12-14-12-|-16-14-16-14-17-------|
 D :-12-12-12-12-12-|12-12-12-12-12-|-12-12-12-12-12-------|
 A :-------------------------------|
 E :-------------------------------|
 
     (verse riff) 12x               4x               4x 
 E :-------------------------------|
 B :--------------------------|Then-Repeat-----|
 G :----------------|-7-7------------|-5-5------------|From-Beginning--|
 D :-5-5------------|-7-7------------|-5-5-----------------|
 A :-5-5------------|-5-5-5-5-9-5----|-3-3-3-3-7-3---------|
 E :-3-3-3-3-7-3-------------------|
 
     Pre Solo      2x                                                 3x
 E :-------------------------------|
 B :----------------|Then-Play-------|Then-opening---------|
 G :-7--7--7--7--7--|verse-riff------|riff-6x--------------|
 D :-7--7--7--7--7------------|-5-5------------|
 A :-5--5--5--5--5------------|-5-5------------|
 E :--------------------------|-3-3-3-3-7-3----|
 
     hold
 E :-------------------------------|
 B :-------------------------------|
 G :-------------------------------|
 D :-5--------------|-5------------------------|
 A :-5--------------|-5------------------------|
 E :-3--------------|-3------------------------|

AC/DC – Money Talks (tab), аккорды - На Гитаре AmDm..