Melodia.Space
Главная 🎸 Аккорды AC/DC AC/DC – Love Song, аккорды

AC/DC – Love Song, аккорды

E|--12p-8p-5--12p-8p-5--|--12p-8p-5--12p-8p-5--|--14p-8p-5--14p-8p-5--|
B|----------------------|----------------------|----------------------|
G|----------------------|----------------------|----------------------|
D|--2-------------------|----------------------|--4-------------------|
A|----------------------|----------------------|----------------------|
E|----------------------|----------------------|----------------------|
 
|--14p-8p-5--14p-8p-5--|--15p-8p-5--15p-8p-5--|--15p-8p-5--15p-8p-5--|
|----------------------|----------------------|----------------------|
|----------------------|----------------------|----------------------|
|----------------------|--5-------------------|----------------------|
|----------------------|----------------------|----------------------|
|----------------------|----------------------|----------------------|

|--14p-8p-5--14p-8p-5--|--12p-8p-5--12p-8p-5--|--12p-7p-3--12p-7p-3--|
|----------------------|----------------------|----------------------|
|----------------------|----------------------|----------------------|
|--4-------------------|--2-------------------|--2-------------------|
|----------------------|----------------------|----------------------|
|----------------------|----------------------|----------------------|

|--12p-7p-3--12p-7p-3--|--14p-7p-3--14p-7p-3--|--14p-7p-3--14p-7p-3--|
|----------------------|----------------------|----------------------|
|----------------------|----------------------|----------------------|
|----------------------|----------------------|----------------------|
|----------------------|--4-------------------|----------------------|
|----------------------|----------------------|----------------------|

|--15p-7p-3--15p-7p-3--|--15p-7p-3--15p-7p-3--|--15p-7p-3--15p-7p-3--|
|----------------------|----------------------|----------------------|
|----------------------|----------------------|----------------------|
|--5-------------------|----------------------|----------------------|
|----------------------|----------------------|----------------------|
|----------------------|----------------------|----------------------|

|--15p-7p-3--15p-7p-3--|--10p-6p-3--10p-6p-3--|--10p-6p-3--10p-6p-3--|
|----------------------|----------------------|----------------------|
|----------------------|----------------------|----------------------|
|----------------------|--0-------------------|----------------------|
|----------------------|----------------------|----------------------|
|----------------------|----------------------|----------------------|

|--12p-6p-3--12p-6p-3--|--12p-6p-3--12p-6p-3--|--13p-6p-3--13p-6p-3--|
|----------------------|----------------------|----------------------|
|----------------------|----------------------|----------------------|
|--2-------------------|----------------------|--3-------------------|
|----------------------|----------------------|----------------------|
|----------------------|----------------------|----------------------|

|--13p-6p-3--13p-6p-3--|--12p-6p-3--12p-6p-3--|--12p-6p-3--12p-6p-3--|
|----------------------|----------------------|----------------------|
|----------------------|----------------------|----------------------|
|----------------------|--2-------------------|--0-------------------|
|----------------------|----------------------|----------------------|
|----------------------|----------------------|----------------------|

|--10p-6p-3--10p-6p-3--|--10p-6p-3--10p-6p-3--|--12p-6p-3--12p-6p-3--|
|----------------------|----------------------|----------------------|
|----------------------|----------------------|----------------------|
|--0-------------------|----------------------|--2-------------------|
|----------------------|----------------------|----------------------|
|----------------------|----------------------|----------------------|

|--12p-6p-3--12p-6p-3--|--13p-5p-1--13p-5p-1--|--13p-5p-1--13p-5p-1--|
|----------------------|----------------------|----------------------|
|----------------------|----------------------|----------------------|
|----------------------|--3-------------------|----------------------|
|----------------------|----------------------|----------------------|
|----------------------|----------------------|----------------------|

|--13p-5p-1--13p-5p-1--|--13p-5p-1--13p-5p-1--|--8p-4p-1--8p-4p-1--|
|----------------------|----------------------|--------------------|
|----------------------|----------------------|--------------------|
|----------------------|----------------------|--3-----------------|
|----------------------|----------------------|--------------------|
|----------------------|----------------------|--------------------|

AC/DC – Love Song, аккорды - На Гитаре AmDm..