Melodia.Space
Главная 🎸 Аккорды AC/DC AC/DC – Let There Be Rock (btab), аккорды

AC/DC – Let There Be Rock (btab), аккорды

 Here is the main part I got
 
 g-----------------------------------|
 d--h--------h-----------|--h--------h-----------|
 a-0-2--2---0-2--2-------|-0-2--2---0-2--2-------|
 e-----------------------------------|
 
 g-----------------------------------|
 d-----------------------------------|
 a--h--------h-----------|--h--------h-----------|
 e-0-2--2---0-2--2-------|-0-2--2---0-2--2-------|
 
 
 
 This is the part where there is no more vocals for the rest of the
 song. I was not trying to tab this I just stumbled upon it so do not kill me if I am wrong.
 
 g-----------------------------------|
 d--h-----------h--------|--h-----------h--------|
 a-0--2--2-2---0--2--2-2-|-0--2--2-2---0--2--2-2-|  
 e-----------------------------------|
 
 g-----------------------------------|
 d-----------------------------------|
 a--h-----------h--------|--h-----------h--------|
 e-0--2--2-2---0--2--2-2-|-0--2--2-2---0--2--2-2-|
 
 Note: I will try to tab some more, let me know what you think.
 	p.s. Anyone know where I can get some AC/DC Bass tab books? 

AC/DC – Let There Be Rock (btab), аккорды - На Гитаре AmDm..