Melodia.Space
Главная 🎸 Аккорды AC/DC AC/DC – Let Me Put My Love Into You, аккорды

AC/DC – Let Me Put My Love Into You, аккорды

Intro:
G|----------------|----------------|
D|----------------|----------------|
A|----------------|----------------|
E|-----0-------0--|-----0-------0--|

G|----------------|
D|----------------|
A|-------------7-5|
E|-----0------0---|

G|----------------|----------------|
D|----------------|----------------|
A|----------------|----------------|
E|-0-0-0-0-0-0-0-0|-0-0-0-0-0-0-0-0|

G|----------------|----------------|
D|----------------|----------------|
A|---------5-5-5--|----------------|
E|-0-0-0-0-------5|-5-5-5-5-5-5-5-5|

G|----------------|----------------|
D|----------------|----------------|
A|----------------|-------------7-5|
E|-0-0-0-0-0-0-0-0|-0-0-0-0-0-0----|

G|----------------|----------------|
D|----------------|----------------|
A|-7-------5------|----------------|
E|---------------5|-5-5-5-5-5-5-5-5|

Verse 1:
G|----------------|----------------|
D|----------------|----------------|
A|----------------|----------------|
E|-0-0-0-0-0-0-0-0|-0-0-0-0-0-0-0-0|

G|----------------|----------------|
D|----------------|----------------|
A|---------5-5-5--|----------------|
E|-0-0-0-0-------5|-5-5-5-5-5-5-5-5|

Pre-chorus:
G|----------------|----------------|
D|----------------|----------------|
A|----------------|----------------|
E|-0-----0--------|-5-----5--------|

G|----------------|----------------|
D|----------------|----------------|
A|----------------|----------------|
E|-0----0---------|-5-5-3-5--------|

Chorus: x3
G|----------------|----------------|
D|----------------|----------------|
A|-5-5-5-5--------|----------------|
E|---------5-5-5-0|-5-5-5-5-5-5-5-5|

G|----------------|----------------|
D|----------------|----------------|
A|-5--------------|-------------7-5|
E|--------5------0|(0)--------0----|

Verse 2:
G|----------------|----------------|
D|----------------|----------------|
A|----------------|----------------|
E|-0-0-0-0-0-0-0-0|-0-0-0-0-0-0-0-0|

G|----------------|----------------|
D|----------------|----------------|
A|---------5-5-5--|----------------|
E|-0-0-0-0-------5|-5-5-5-5-5-5-5-5|

Pre-chorus:
G|----------------|----------------|
D|----------------|----------------|
A|----------------|----------------|
E|-0-----0--------|-5-----5--------|

G|----------------|----------------|
D|----------------|----------------|
A|----------------|----------------|
E|-0----0---------|-5-5-3-5--------|

Chorus: x3
G|----------------|----------------|
D|----------------|----------------|
A|-5-5-5-5--------|----------------|
E|---------5-5-5-0|-5-5-5-5-5-5-5-5|

G|----------------|----------------|
D|----------------|----------------|
A|-5--------------|-------------7-5|
E|--------5------0|(0)--------0----|

G|----------------|----------------|
D|----------------|----------------|
A|----------------|----------------|
E|----------------|-0-0-0-0-0-0-0-0|

Guitar solo:
G|----------------|----------------|
D|----------------|----------------|
A|----------------|----------------|
E|-0-----0--------|-5-----5--------|

G|----------------|----------------|
D|----------------|----------------|
A|----------------|----------------|
E|-0----0---------|-5-5-3-5--------|


G|----------------|----------------|
D|----------------|----------------|
A|----------------|----------------|
E|-0-0-0-0-0-0-0-0|-5-5-5-5-5-5-5-5|

G|----------------|----------------|
D|----------------|----------------|
A|----------------|----------------|
E|-0-0-0-0-0-0-0-0|-5-5-3-5-5-5-5-5|

G|----------------|----------------|
D|----------------|----------------|
A|----------------|----------------|
E|-5-5-5-5-5-5-5-5|-5-5-5-5-5-5-5-5|

Chorus: x7
G|----------------|----------------|
D|----------------|----------------|
A|-5-5-5-5--------|----------------|
E|---------5-5-5-0|-5-5-5-5-5-5-5-5|

G|----------------|----------------|
D|----------------|----------------|
A|-5--------------|----------------|
E|--------5-------|-0--------------|

G|----------------|----------------|------|
D|----------------|----------------|------|
A|----------------|-5--------------|------|
E|-0--------------|----------------|-5----|

AC/DC – Let Me Put My Love Into You, аккорды - На Гитаре AmDm..