Melodia.Space
Главная 🎸 Аккорды AC/DC AC/DC – Landslide, аккорды

AC/DC – Landslide, аккорды

Riff 1 Riff 2
E---|-----------------------------------------------|--------------|----
B---|-----------------------------------------------|--------------|----
G---|-------------------------5h6--------7-----5h6--|--7--5--7--5--|----
D---|----------------7--x--x--5----x--x--7--x--5----|--7--5--7--5--|----
A---|--0--0--3p0--0---------------------------------|--5--3--5--3--|----
E---|-----------------------------------------------|--------------|----
 
Riff 3 Riff 4
E-----------------------------------------|-------------------|---------
B-----------------------------------------|----------1--3--3--|---------
G-----------------------------------------|----------0--0--2--|---------
D-----------------------------------------|----------x--0--0--|---------
A-----------------------------------------|--3p0--0--3--x-----|---------
E---5p0--0--3p0--0--5p0--0--3p0--0--3--0--|-------------3-----|---------

Riff 5
E--------------------------------|--------------------------------------
B--------------------------3--3--|--------------------------------------
G--------------------------0--2--|--------------------------------------
D-----------------7--x--x--0--0--|--------------------------------------
A---0--0--3p0--0-----------x-----|--------------------------------------
E--------------------------3-----|--------------------------------------

Riff 1 (16x with spoken Intro)
Riff 2 (2x)
Riff 1 (2x)
Riff 3 (4x)
Riff 4 (4x)

Verse 1
Riff 1 (4x)
Riff 2 (2x)
Riff 1 (2x)
Riff 3 (4x)
Riff 4 (4x)

Verse 2
Riff 1 (4x)
Riff 2 (2x)
Riff 1 (2x)
Riff 3 (4x)
Riff 4 (4x)

Riff 3 (4x)

Solo (4x Riff 4 / 2x Riff 2 / 1x Riff 1 / 1x Riff 5 / 4x Riff 3)

4x Riff 4

Verse 3
Riff 1 (4x)
Riff 2 (2x)
Riff 1 (2x)
Riff 3 (4x)
Riff 4 (until the end)

AC/DC – Landslide, аккорды - На Гитаре AmDm..