Melodia.Space
Главная 🎸 Аккорды AC/DC AC/DC – Jailbreak (btab), аккорды

AC/DC – Jailbreak (btab), аккорды

Riff 1:
G|-----------------|
D|-----------------|
A|--------5--4-----|
E|--0--0--------0--|

Riff 2:
G|-------------------------|
D|-------------------------|
A|-------------------------|
E|--5--5--5--5--5--5--5--5-|

Riff 3:
G|--------------------------|
D|--------------------------|
A|--------------------------|
E|--7--7--7--7--7--7--7--7--|

Riff 1 28x
Riff 2 2x
Riff 3 2x
Riff 1 28x
Riff 2 2x
Riff 3 2x
Riff 1 37x

AC/DC – Jailbreak (btab), аккорды - На Гитаре AmDm..