Melodia.Space
Главная 🎸 Аккорды AC/DC AC/DC – It’s A Long Way To The Top, аккорды

AC/DC – It’s A Long Way To The Top, аккорды

Malcolm Riff:
E|--------------------|-----------------------|----------------------|
B|--------------------|-----------------------|----------------------|
G|--------------------|-----------------------|----------------------|
D|--------------x--4--|----4-------4-------4--|----4-------4-------4-|
A|--------------x--2--|----2----x--2----0--2--|----2----x--2----0--2-|
E|--------------------|---------x-------------|---------x------------|

Angus comes in:
E|-----------------------|----|
B|-----------------------|----|
G|-----------------------|--4-|
D|--------------2----4-4-|--4-|
A|----------2-4-2----2-2-|--2-|
E|-----------------------|----|

E|------------------|-----------------------|----|
B|------------------|-----------------------|----|
G|------------------|-----------------------|--4-|
D|------------------|--------------2----4-4-|--4-|
A|------------------|----------2-4-2----2-2-|--2-|
E|------------------|-----------------------|----|

E|------------------|------------------|---------------------|
B|------------------|------------------|---------------------|
G|------------------|------------------|---------------------|
D|------------------|------------------|--------------2----4-|
A|------------------|------------------|----------2-4-2----2-|
E|------------------|------------------|---------------------|

E|----|
B|----|
G|--4-|
D|--4-|
A|--2-|
E|----|

riding on the highway...(let ring)
E|----------------------|----|
B|----------------------|----|
G|----------------------|--4-|
D|--------------2----4--|--4-|
A|----------2-4-2----2--|--2-|
E|----------------------|----|

gettin' robbed gettin' stoned... (go on until chorus)
E|------------------|----7------7--------|----7------7-|
B|------------------|----7------7--------|----7------7-|
G|------------------|--------------------|-------------|
D|------------------|--------------------|-------------|
A|------------------|--------------------|-------------|
E|------------------|--------------------|-------------|

Chorus Angus:
Long way to the top...
E|------------------5--|--------4------x----|
B|---------------x--5--|--------5------x----|
G|--4------------x--2--|--------4------x--4-|
D|--4------------x--2--|--------6------x--4-|
A|--2------------x--0--|------------------2-|
E|---------------------|--------------------|

long way to the top...
E|------------------|-----------------5--|--------4-----------|
B|------------------|-----------------5--|--------5-----------|
G|------------------|--4--------------2--|--------4---------4-|
D|------------------|--4--------------2--|--------6--2------4-|
A|------------------|--2--------------0--|-----------2------2-|
E|------------------|--------------------|-----------4--------|

think it's easy...
E|------------------|----------------|-------------------|-------------------|
B|------------------|----------------|-------------------|-------------------|
G|------------------|----------------|--4----------------|--------------x--9-|
D|------------------|----------------|--4----------------|--------------x--9-|
A|------------------|----------------|--2----------------|--------------x--7-|
E|------------------|----------------|-------------------|-----------------7-|

try playin'... long way...
E|------------------|----------------|--5--------------4--|--------------4----|
B|------------------|----------------|--5--------------5--|--------------5----|
G|------------------|----------------|--2--------------4--|--------------4--4-|
D|------------------|----------------|--2--------------6--|--------------6--4-|
A|------------------|----------------|--0-----------------|-----------------2-|
E|------------------|----------------|--------------------|-------------------|
to verse:
E|------------------|----------------|----7------7-|
B|------------------|----------------|----7------7-|
G|------------------|----------------|-------------|
D|------------------|----------------|-------------|
A|------------------|----------------|-------------|
E|------------------|----------------|-------------|

Chorus Malcolm:
long way to the top...
E|------------------5--|--------------------|----------------------|
B|---------------x--5--|--------------------|----------------------|
G|--4------------x--2--|-----------------4--|----------------------|
D|--4------------x--2--|--------2--------4--|----4-------4-------4-|
A|--2------------x--0--|--------2--------2--|----2----x--2----0--2-|
E|---------------------|--------4-----------|---------x------------|

long way to the top...
E|----------------------|------------------5--|---------------------|
B|----------------------|------------------5--|---------------------|
G|----------------------|--4---------------2--|-------------------4-|
D|----4-------4----4----|--4---------------2--|-----------2----2--4-|
A|----2----x--2----2----|--2------------2--0--|--------2--2----2--2-|
E|---------x------------|---------------------|-----------4----4----|

think it's easy
E|-----------------------|-----------------------|----|
B|-----------------------|-----------------------|----|
G|-----------------------|-----------------------|--4-|
D|----4-------4-------4--|----4-------4----2--2--|--4-|
A|----2----x--2----0--2--|----2----x--2----2--2--|--2-|
E|---------x-------------|---------x-------------|----|

try playin'...
E|-------------------|
B|-----------------5-|
G|--------------x--4-|
D|--------------x--2-|
A|--------------x--2-|
E|-------------------|

long way... to verse:
E|--5------------------|-------------------|
B|--5------------------|-------------------|
G|--2------------------|--------------x--4-|
D|--2---------------2--|--------------x--4-|
A|--0---------------2--|--------------x--2-|
E|---------------2--4--|-------------------|

E|--------------------|----------------------|---------------------|
B|--------------------|----------------------|---------------------|
G|-----------------4--|----4------4-------4--|----4------4-------4-|
D|--------------2--4--|----4------4----2--4--|----4------4----2--4-|
A|--------------0--2--|----2------2----0--2--|----2------2----0--2-|
E|--------------------|----------------------|---------------------|

AC/DC – It’s A Long Way To The Top, аккорды - На Гитаре AmDm..