Melodia.Space
Главная 🎸 Аккорды AC/DC AC/DC – Highway To Hell (btab), аккорды

AC/DC – Highway To Hell (btab), аккорды

Intro/Verse:
G|-----------------------------------------|
D|-----------------------------------------| (Sounds good an
A|-----------------------------------------| octave higher too)
E|-5-5-5-----2-2-3---2-2-3--2-2-3---2--5-5-|

Pre-Chorus:
G|-----------------------------|
D|-----------------------------| (Crecendo)
A|-----------------------------|
E|-0---0-0-0-0-0-0-0-0-0-0-0-0-|

Chorus:
G|-----------------|
D|-------------5---| (Staccato, except
A|-0-0-0-0-0-0---5-| for the last two.
E|-----------------| Play with the drums)

G|-----------------|
D|-----------------| (Last time only)
A|-0-0-0-0-0-0-5---|
E|-----------------|

Bridge to Solo:
G|--------------------------|
D|--------------------------|
A|-5--5--5----5--5--5--5--5-|
E|--------------------------|

Play Chorus for the Solo

Outro:
G|---------------------|
D|---------------------|
A|-0-0-0-0-0-0-0-0-...-|
E|---------------------|

AC/DC – Highway To Hell (btab), аккорды - На Гитаре AmDm..